Time Stand Still By: Rush
================================
w+q q q w q q q w q q q e e e e e e e e Q e e e e e
+-----------+---------+---------+-------------------+-------------+
|7:-R-------|---R-----|---R-----|4:-----------------|-------------|
|4:---------|---------|-7-------|4:-4-4-4-4-4-4-4-4-|-4-4-4-4-4---|
+-------5-5-+-7---5-5-+-----5-5-+-------------------+-----------4-+
e e e e e e e e e e e e e e e e e e e e e e e e e e e e e e e e
+-----------------+-----------------+-----------------+-----------------+
|-----------------|-----------------|-----2-------2---|-----------------|
|-----------------|-----------------|-----------------|---------0-2-4---|
+-5-5-5-5-5-5-5-5-+-5-5-5-5-5-4-5-4-+-0-0---0-0-0---0-+-0-0-2-4-------4-+
e e e e e e e e e e e e e e e e Q q e e e Q q e e e e e e e e e e e
+-----------------+-----------------+-----------+-----------+-----------------+
|-----------------|-2-1---2-1---1---|---7---7---|-----------|-----------------|
|-2-2-2-2-2-2-2-2-|-----2-----2---2-|-----7---7-|---------3-|-4-4-4-4-4-4-4-4-|
+-----------------+-----------------+-5---------+-7-7-5-7---+-----------------+
e e e e e e e e e e e e e e e e e e e e e e e e e e e e e e e e
+-----------------+-----------------+-----------------+-----------------+
|-----------------|-----------------|-----------------|-----2-------2---|
|-4-4-4-4-4-4-4---|-----------------|-----------------|-----------------|
+---------------4-+-5-5-5-5-5-5-5-5-+-5-5-5-5-5-4-5-4-+-0-0---0-0-0---0-+
e e e e e e e e e e e e e e e e e e e q e e e Q q e e e
+-----------------+-----------------+---------------+-----------+
|-----------------|-----------------|-2-1---4-2-1---|---7---7---|
|---------0-2-4---|-2-2-2-2-2-2-2-2-|-----2-------4-|-----7---7-|
+-0-0-2-4-------4-+-----------------+---------------+-5---------+
e e e q e e e w e+h e e e +e+h e e e +e q e+h e+h e e e
+---------------+---+-----9-11-13-+------11-9-11-+----13-11---+-----13-11-4-+
|-------------4-|---|-------------|--------------|------------|-------------|
|---9-7-9-7-6---|---|-------------|--------------|------------|-0-----------|
+-7-------------+-5-+-0-----------+--------------+------------+-------------+
e+h e e e +e+h e e e e e e e q e e e+h e e e e+h e e e
+-----9-11-13-+------11-9-11-+-11-11-11-13-11-9-6-+-16---13-11-4-+-----9-11-13-+
|-------------|--------------|--------------------|--------------|-------------|
|-------------|--------------|--------------------|-0------------|-------------|
+-0-----------+--------------+--------------------+--------------+-0-----------+
+e+h e e e e e H w+q q q w+q q q e e e s s e e e e
+------11-9-11-+-11-13-11-+-----------+---------+---------------------+
|--------------|----------|7:---------|---------|4:-2-2-2-2-2-2-2-2---|
|--------------|----------|4:-------4-|---------|4:-----------------2-|
+--------------+----------+---7---5---+-7---5-5-+---------------------+
e e e e e e e e e e e e e e e e e e e q e e e e e e q e e e
+-----------------+-----------------+---------------+---------------+
|-----------------|-----------------|---------------|---------------|
|-4-4-4-4-4-4-4-4-|-2-2-2-2-2-2-2-2-|-2-2-2-2-4-2-4-|---------------|
+-----------------+-----------------+---------------+-5-5-5-5-5-5-5-+
e e e e e e e e q e e e e e s s e e e q e s s s s Q q s s e e
+-----------------+-----------------+-------------------+-------------+
|-----------------|-------------2-2-|-2-4-6-4-2-2-4-2---|-------------|
|-----------------|-----------------|-----------------4-|-5-5-5-4-5-4-|
+-2-2-2-2-2-2-2-2-+-0-0-0-0-0-0-----+-------------------+-------------+
Q q e s s e e e e q e e e e e e q e e e w e+h e q w+q q q
+-------------+---------------+---------------+---+---------+-----------+
|-------------|---2---2-4-2---|---2---2-4-2---|---|---------|7:---------|
|-----2-4-2---|-----2-------4-|-----2-------4-|-5-|---------|4:---------|
+-5-5-------5-+-0-------------+-0-------------+---+-5---5-5-+---7---5-5-+
w+q q q e e e q e e e e e e e e e e e e e e e e e e e
+---------+-----------------+-----------------+-----------------+
|---------|4:---------------|-----------------|-----------------|
|---------|4:-4-4-4-4-4-4-4-|-4-4-4-4-4-2-4-2-|-----------------|
+-7---5-5-+-----------------+-----------------+-5-5-5-5-5-5-5-5-+
e e e e e e e e e e e e e e e e e e e e e e e e q e e e e e e
+-----------------+-----------------+-----------------+---------------+
|-----------------|-----2-------2---|-----------------|---------------|
|-----------------|-----------------|---------0-2-4---|-2-2-2-2-2-2-2-|
+-5-5-5-5-5-4-5-4-+-0-0---0-0-0---0-+-0-0-2-4-------4-+---------------+
e e e e e e e e e e e e e e e e e e e e e e e e e q e e e e e
+-----------------+-----------------+-----------------+---------------+
|-2-1---2-1---1---|-----R-----------|-----R-----------|---------------|
|-----2-----2---2-|-4-4---4-4-2-2-2-|-4-4---4-4-2-2-4-|---------------|
+-----------------+-----------------+-----------------+-5-5-5-5-4-4-4-+
e q e e e e e e e e e e e e e e e e e e e e e e q e e e e e
+---------------+-----------------+-----------------+---------------+
|---------------|-----2-------2---|-----------------|---------------|
|---------------|-----------------|---------0-2-4---|-2-2-2-2-2-2-2-|
+-5-5-5-5-4-4-4-+-0-0---0-0-0---0-+-0-0-2-4-------4-+---------------+
e e e s s e e e e Q q e e e e e e s s e e e e h+Q e +e+h e e e
+-------------1-----+-----------+-------------------+-------+------9-11-13-+
|-2-1---2-2-1---4-2-|---7---7---|-------------------|-------|--------------|
|-----2-------------|-----7---7-|---9---9-9-9-7-6-4-|-0-----|--------------|
+-------------------+-5---------+-7---7-------------+-----0-+--------------+
+e+h e e e +q e e q e e e+h e e e e+h e e e +e+h e e e
+------11-9-11-+----11-13-11-9-6-+-16---13-11-4-+-----9-11-13-+------11-9-11-+
|--------------|-----------------|--------------|-------------|--------------|
|--------------|-----------------|-0------------|-------------|--------------|
+--------------+-----------------+--------------+-0-----------+--------------+
H q w+q q q e s s e e e e e e e e q e e e e e e e e e e e e
+-11-1-+-----------+---------------------+---------------+-----------------+
|------|7:---------|4:-2-2-2-2-2-2-2-2---|-------R-------|-----------------|
|------|4:---------|4:-----------------2-|-4-4-4---4-4-4-|-2-2-2-2-2-2-2-2-|
+------+---7---5-5-+---------------------+---------------+-----------------+
e e e q e e e e e e e e e e e e e e e e e e e e e e e s E e e
+---------------+-----------------+-----------------+-----------9-11-13-+
|---------------|-----------------|-----------------|-------------------|
|-2-4-6-4-2-4-2-|-----------------|-----------------|-------------------|
+---------------+-5-5-5-5-5-5-5-5-+-2-2-2-2-2-2-2-2-+-0-0-0-0-0---------+
e e s s s s s s s s s s s s e q e e e e e q e e e e e e Q e e e e e
+-11-9-8-9-8---------------------+---------------+---------------+-------------+
|------------11-9-11-9-7-6-7-6-4-|-2-2-2-2-2-2---|---------------|-------------|
|--------------------------------|-------------2-|-4-4-4-4-4-4-4-|-2-2-2-2-2-2-|
+--------------------------------+---------------+---------------+-------------+
e e e q e e s s e e e e e e e e e e e e e e e e e e e s s e e e s s
+-----------------+-----------------+-----------------+---------------------+
|-----------------|---------------2-|-4-4-4-4-4-4-4---|-2-2-2-2-2-2-2-2-2-2-|
|-2-4-6-4-2-2-4-2-|-----------------|---------------4-|---------------------|
+-----------------+-5-5-5-5-5-5-5---+-----------------+---------------------+
E s s s e s e E e Q q s s e e Q q e s s e e e e q e e e
+-------------------+-------------+-------------+---------------+
|-2-4-4-4-6-4-4-2-4-|-------------|-------------|---2---2-4-2---|
|-------------------|-5-5-5-4-5-4-|-----2-4-2---|-------------4-|
+-------------------+-------------+-5-5-------5-+-0---0---------+
e e e q e s E w e+h e q w+q q q w+q q q
+---------------+---+---------+-----------+---------+
|---2---2-4-2---|---|---------|7:---------|---------|
|-----2-------4-|-5-|---------|4:-------4-|---------|
+-0-------------+---+-5---5-5-+---7---5---+-7---5-5-+
e e e e e e e e e e e e e e e e e e e e e e e e e e e e
+-----------------------------+-----------------------------+
|-----------------------------|---------------------------2-|
|-4-4-4-4-4-4-4-4-4-4-4-2-4-2-|-----------------------------|
+-----------------------------+-5-5-5-5-5-5-5-5-5-4-5-4-5---+
e e e e e e e e e e e e e e e e e e e e e e e e e e e e
+-----------------------------+-----------------------------+
|-----------------------------|-----------------------------|
|-4-4-4-4-4-4-4-4-4-4-4-2-4-2-|---------------------------4-|
+-----------------------------+-5-5-5-5-5-5-5-5-5-5-5-4-5---+
e e e e e e e e e e e e e e e e e e e e e e e e e e e e
+-----------------------------+-----------------------------+
|-----------------------------|-------------------4-4---4---|
|-------------------------2-4-|-2-2-2-2-2-2-2-2-2-----2---2-|
+-0-0-0-0-0-0-0-0-0-0-2-4-----+-----------------------------+
e e e e e e e e e e e e e e e e e e e q q e e e e e
+-----------------------------+-------------------------+
|-----------------------------|-------------------------|
|-4-4-4-4-4-4-4-4-4-2-4-2-4-2-|-------------------------|
+-----------------------------+-5-5-5-5-5-5-5-5-5-4-5-4-+
e e e e e e e e e e e e e e e e e e e s s e e e e e e e e
+-----------------------------+-------------------------------+
|-----------2---2-------------|-------------------------------|
|-----------------------------|-2-2-2-2-2-2-2-2-2-2-2-2-4-2-4-|
+-0-0-0-0-0---0---0-0-0-2-4-5-+-------------------------------+
e e e q s s e s s e e e q e e e h+Q e +e+h e e e +e+h e e e
+---------------------+---------------+-------+------9-11-13-+------11-9-11-+
|4:---7---7-----7-----|---------------|-------|--------------|--------------|
|4:---------7-7---7-7-|---9---9-------|-0-----|--------------|--------------|
+---5---5-------------+-7---7---7-7-7-+-----0-+--------------+--------------+
+e e e e q e e e+h e e e h e e e e +e+h e e e q e e+h
+----11-11-13-11-9-6-+-16---13-11-4-+-----9-11-13-+------11-9-11-+-11-13-11---+
|--------------------|--------------|---R---------|--------------|------------|
|--------------------|-0------------|-------------|--------------|------------|
+--------------------+--------------+-0-----------+--------------+------------+
e e e e e e e e e e e e e e e e e e e e e e e e e e e e
+-------------------------------+-----------------------------+
|7:-----------------------------|-----------------------------|
|4:-----------------------------|-----------------------------|
+---2-2-2-2-2-2-2-2-2-2-2-2-2-2-+-4-4-4-4-4-4-4-4-4-4-4-4-4-4-+
e e e q e e e e e e e e e e e e e e e e e H e e e e e e e e q q q q
+---------------------------+-------------------+-------------------+---------+
|---------------------------|-------------------|4:-2-2-2-2-2-2-2-2-|---------|
|---------------------------|-2-2-2-2-2-2-2-2-2-|4:-----------------|-4-4-4-4-|
+-5-5-5-5-5-5-5-5-5-5-5-5-5-+-------------------+-------------------+---------+
e e e e e e e e e e e q e e e e e e e e e e e e e e e e e e e
+-----------------+---------------+-----------------+-----------------+
|-----------------|---------------|-----------------|-----------------|
|-2-2-2-2-2-2-2-2-|-2-4-6-4-2-2-4-|-----------------|-----------------|
+-----------------+---------------+-5-5-5-5-5-5-5-5-+-2-2-2-2-2-2-2-2-+
q e s s e e e e e e e s s e e e e q e e e e e e q e e e e e e
+-----------------+-------------------+---------------+---------------+
|-----2-2-2-4-2---|-2---2-2-2-2-4-2-4-|-2-2-2-2-2-2-2-|---------------|
|---------------4-|-------------------|---------------|-4-4-4-4-4-4-4-|
+-0-0-------------+---0---------------+---------------+---------------+
e q e e e e s s e e e q e s s s s q e e e e e e q e e e e e e
+-------------4-4-+-4-6---8-6-4-6-4---+---------------+---------------+
|-----------------|-----R-----------7-|---------------|-4-4-4-4-4-4-4-|
|-2-2-2-2-2-2-----|-------------------|---------------|---------------|
+-----------------+-------------------+-5-5-5-5-5-5-5-+---------------+
e e e e e e e e q^q^ q^q^q^q^ Q q e e e Q q e e e e e e q e s s s s
+-----------------+-11-9-11-6-4-6-+-----------+-----------+-------------------+
|-2-2-2-2-2-2-2-2-|---------------|-----------|-----------|---2---2-4-2-4-2---|
|-----------------|---------------|-5-5-4-5-4-|-----2-4-2-|-----------------4-|
+-----------------+---------------+-----------+-5-5-------+-0---0-------------+
e e e e e s s e e Q q s s e e e s s e q e e e e s s e q e e e
+-------------------+-------------+-----------------+-----------6-4---+
|---2---4-7-6-4-2-4-|-------------|-----------------|---2-2---2-----7-|
|-------------------|-5-5-4-4-5-4-|-----------2-4-2-|-----------------|
+-0---0-------------+-------------+-5-5-5-5-5-------+-0-----0---------+
s e s e q e e e w w w+q q q w +w +w
+-----------------+---+---+-----------+-----+----+----+
|-6-7-6---4-------|---|---|7:---------|4:---|----|----|
|-------7---7-4-7-|-5-|---|4:-------4-|4:---|----|----|
+-----------------+---+-5-+---7---5---+---7-+----+----+
==========================================================================
Created using the Bass Tab Creator
__ by Mario D'Alessio (motcid!marble!dalessio)
+|oo|+
+|oo|+ Notes: w = Whole h = Half q = Quarter
|| e = 8th s = 16th t = 32nd x = 64th
||
|| Capital durations are dotted notes
|| (equal to 1.5 times the duration value)
||
|| #
|| +----+ +----+
_ || _ |*--*+ = MEASURE |4:--| = TIME
_||_// |*--*+ REPEATS |4:--| SIGNATURES
| [] | +----+ (#=Num Repeats) +----+
| || |
/ [] + = TIE ^ = TRIPLET > = BEND
______/ H = HAMMER ON = SLIDE TO FRET R = Rest
P = PULL OFF X = SLIDE TO NOWHERE ~ = Trill




Ваше мнение



Капча