The Spirit of Radio By: Rush
================================
w +w w s s h E E s s s s e q s s e e
+-----+----+---+-7-7---4-6-+-4-4-----------------+
|4:-R-|----|---|-----R-----|-----R-7-7-R-7-7---R-|
|4:---|----|---|-----------|-----------------5---|
+-----+----+-0-+-----------+---------------------+
s s e e s^s^s s s e e e Q e w s s Q s s s s s s s s
+-------------------------------+-----+-------7-7---------------+
|6:-7-7---R-4-4-4-4-5-4-------R-|4:---|-----R-----10-9-7-9-7----|
|4:-----5---------------5-5-7---|4:---|-0-0------------------10-|
+-------------------------------+---0-+-------------------------+
s s s s s s e e s s s s s s q q e e e e +q e e e e e e +q q q e e
+------------------------------+-------------+----------------+------------+
|----------------4-2-0---0-----|---------R---|------------2---|------------|
|-9-10-9-7-5-----------4---4-2-|-----------0-|----2-0-3-4-----|----------0-|
+------------7-5---------------+-0-2-3-3-----+--------------0-+----2-3-4---+
+e e e e e e e e +q q e e e e +e e e e e e e e +q q e e e e
+------------------+--------------+------------------+--------------+
|--------------2---|--------------|--------------2---|--------------|
|----0-2-0-3-4-----|------------0-|----0-2-0-3-4-----|------------0-|
+----------------0-+----2-3-3-4---+----------------0-+----2-3-3-4---+
+e e e e e e e e w w e e e e e e e e e^e^e^e^e^e^e Q q e q e e s s
+------------------+---+---+-----------------+-----------------+---------------+
|--------------2---|---|---|-----------------|-----------------|---R-----------|
|----0-2-0-3-4-----|---|-2-|-----------------|-----------------|-----------2-4-|
+----------------0-+-0-+---+-4-4-4-4-4-4-4-4-+-5-5-5-5-5-5-5-7-+-0---0-0-0-----+
e q e e e e e e e e e e e e e e e e q e s s e q e q s s e s s
+---------------+-----------------+-----------------+-----------------+
|-------R-------|-----R---R-------|-----R---------2-|---R-------------|
|-2-2-2---2-2---|-----------------|-0-0---4-2-2-2---|-------------2-4-|
+-------------4-+-4-4---4---4-2-4-+-----------------+-0---0-0-0-0-----+
e s s e q s s q q e e e e e e q e q e e e q e q e e s s q e q e e e
+-----------------+---------------+-------------+---------------+-------------+
|-------R---------|---R---R-------|---R---------|---R-----------|---R---------|
|-2-2-2---2-2-2-2-|---------------|-0---0-2-2-4-|-----------2-4-|-2---2-2-2---|
+-----------------+-4---4---4-2-4-+-------------+-0---0-0-0-----+-----------4-+
q e e e e e e e e e q s s s s s s q e q e e s s e s s s s s E e s s e
+---------------+---------------------+---------------+-----------------------+
|---R---R---R---|-----R---------------|---R-----------|---R---------R---------|
|---------------|-0-0---0-2-4-2-4-2-4-|-----------2-4-|-2---2-2-0-2---2-2-2---|
+-4---4---4---4-+---------------------+-0---0-0-0-----+---------------------3-+
q e e e s s s s s s Q q e e e q e q s s e e e e e e e e e e
+---------------------+-----------+---------------+-----------------+
|---R---R-------------|---------2-|---R-----------|-----R---R-------|
|---------------------|-0-4-2-2---|---------------|-2-2---2---2-2---|
+-4---4---4-4-2-2-4-4-+-----------+-0---0-0-0-0-0-+---------------4-+
e e e e e e e e e e e q q e q e q e e s s e e e e e s s e e
+-----------------+-------------+---------------+-------------------+
|-----R---R-------|-----R-------|---R-----------|-----R---R---------|
|-----------------|-0-0---0-2-4-|-----------2-4-|-2-2---2---2-2-2---|
+-4-4---4---4-2-4-+-------------+-0---0-0-0-----+-----------------4-+
e e e e e e e e e e s s e e e s s e q e E s e e s s
+-----------------+---------------------+-----------------+
|-----R---R-------|-------------------2-|---R-------------|
|-----------------|-0-0-0-0-0-4-2-2-4---|-------------2-4-|
+-4-4---4---4-2-4-+---------------------+-0---0-0-0-0-----+
e s s s s s e e s e e e e e e e e e e e e e e e e q w +w h q q
+-----------------------+-----------------+---------------+---+----+-------+
|---R---------R---------|-----------------|-------------R-|---|----|-2-2-2-|
|-2---2-2-0-2---2-0-2---|-----------------|-0-0-0-0-0-2---|---|----|-------|
+---------------------4-+-4-4-4-4-4-4-4-4-+---------------+-0-+----+-------+
h q q h q q h q q h q q h q q h q q h q q h q q h q q
+-------+-------+-------+-------+-------+-------+-------+-------+-------+
|-2-2-2-|-2-2-2-|-4-4-4-|-6-6-6-|-4-4-4-|-2-2-2-|-2-2-2-|-2-2-2-|-4-4-4-|
|-------|-------|-------|-------|-------|-------|-------|-------|-------|
+-------+-------+-------+-------+-------+-------+-------+-------+-------+
h q q h q q e e e e e e e e e e e e e e e e e e e e e e e e
+-------+-------+-----------------+-----------------+-----------------+
|-6-6-6-|-4-4-4-|-----------------|-----------------|-----R---R-------|
|-------|-------|-----------------|-----------------|-----------------|
+-------+-------+-0-0-0-0-0-0-0-0-+-0-0-0-0-0-0-0-0-+-0-0---0---0-0-0-+
e e Q e e e e e e q e e e e e e e e e e e e e e e e e e e
+-------------+---------------+-----------------+-----------------+
|-----R-------|-----R---------|-----R---R-------|-----R-----------|
|-2-2---2-2---|---------------|-0-0---0---2-2-2-|-----------------|
+-----------3-+-4-4---4-4-4-4-+-----------------+-0-0---0-0-0-0-0-+
e e e q e e e e e e e e e e e e e e e e s s e e e e e e e e e e
+---------------+-----------------+-------------------+-----------------+
|-----R---------|-----R---R---R---|-------------------|-----R-----------|
|-2-2---2-2-2---|-----------------|-0-0-0-0-0-2-2-2-2-|-----------------|
+-------------3-+-4-4---4---4---4-+-------------------+-0-0---0-0-0-0-0-+
e e e q e e e e e e e q e e e e e q e e e e e e q e e e
+---------------+---------------+---------------+---------------+
|-----R---------|-----R---------|-----R---------|-----R---------|
|-2-2---2-2-2---|---------------|-0-0---0-2-2-4-|---------------|
+-------------3-+-4-4---4-4-4-4-+---------------+-0-0---0-0-0-0-+
e e e q e e e e e e e e e e e e e e e e s s s s e e e e e e e e s s
+---------------+-----------------+---------------------+-------------------+
|-----R---------|-----R---R---R---|-R---R---R---------2-|-----R---R---------|
|-2-2---2-2-2---|-----------------|---0---0---2-4-2-4---|---------------2-4-|
+-------------3-+-4-4---4---4---4-+---------------------+-0-0---0---0-0-----+
e s e s s E e e e e e e e e e e e e e e e e e q w +w h q q h q q
+-------------------+-----------------+---------------+---+----+-------+-------+
|---R-------R-------|-----------------|-------------R-|---|----|-2-2-2-|-2-2-2-|
|-2---2-0-2---2-2---|-----------------|-0-0-0-0-0-2---|---|----|-------|-------|
+-----------------3-+-4-4-4-4-4-4-4-4-+---------------+-0-+----+-------+-------+
h q q h q q h q q h q q h q q h q q h q q h q q h q q
+-------+-------+-------+-------+-------+-------+-------+-------+-------+
|-2-2-2-|-4-4-4-|-6-6-6-|-4-4-4-|-2-2-2-|-2-2-2-|-2-2-2-|-4-4-4-|-6-6-6-|
|-------|-------|-------|-------|-------|-------|-------|-------|-------|
+-------+-------+-------+-------+-------+-------+-------+-------+-------+
h q q Q q q e e e e e e e q e q q e s s e e e e e Q q q e
+-------+---------+---------------+-------------+-----------------+-----------+
|-4-4-4-|---------|3:-2-R-2-R-2-R-|4:---R-------|3:-2-2---2-R-2-R-|4:---------|
|-------|---------|4:-------------|4:-----------|4:-----2---------|4:---------|
+-------+-0-0-0-0-+---------------+---2---2-2-2-+-----------------+---4-4-4-4-+
s s e e e e e e e e e e e e e s s e e e e e e e Q q e e e
+-----------------+-------------------+---------4-------4-+-----------+
|3:-2-2---2---2---|4:-----R---R---R---|-2-2---2---2---2---|-------R---|
|4:-----2---2---2-|4:-----------------|-----2-------2-----|-----------|
+-----------------+---2-2---2---2---2-+-------------------+-0-0-0---0-+
e e e e e e Q e e e e e s s e e e q e e e e e e e e
+---------------+---------------+---------------+-------------------+
|3:-2-R-2-R-2-2-|4:-----R---R---|3:-2-2---2-R-2-|4:-----R---R---R---|
|4:-------------|4:-------------|4:-----2-------|4:-----------------|
+---------------+---2-2---2---2-+---------------+---4-4---4---4---4-+
e e e e e e e e e e e e e e s s e e e e e e e q e q e e s s
+---------------+-------------------+---------4-------4-+---------------+
|3:-R---R-------|4:-----R---R---R---|-2-2---2---2---2---|---R-----------|
|4:-------------|4:-----------------|-----2-------2-----|-----------2-4-|
+-----4---4-4-4-+---2-2---2---2---2-+-------------------+-0---0-0-0-----+
q e E e s e e q e E s e e e q e q q s s q e q e e s s e e e q e e e
+---------------+---------------+-------------+---------------+---------------+
|---R-----------|---R-----------|---R---------|---R-----------|-----R---------|
|-2---2-2-2-2---|---------------|-0---0-2-2-4-|-----------2-4-|-2-2---2-2-2---|
+-------------3-+-4---4-4-4-2-4-+-------------+-0---0-0-0-----+-------------3-+
e e e e e e e e e^e^e^e^e^e^e Q w +H s s
+-----------------+-----------------+---+----7-7-+
|-----------------|-----------------|---|--------|
|-----------------|-0-0-0-0-0-0-0-2-|---|--------|
+-4-4-4-4-4-4-4-4-+-----------------+-0-+--------+
e s s s s s s s s s s s s e e s s s s s s q q e e e e
+-7----------------------------+-----------------+-------------+
|---10-9-7-9-7-5---------------|2:-4-2-0---0-----|---------R---|
|----------------9-7-9-7-------|4:-------4---4-2-|-----------0-|
+------------------------9-7-5-+-----------------+-0-2-3-3-----+
+e e e e e e e e +q q e e e e +e e e e e e e e +e e q q e e
+------------------+--------------+------------------+--------------+
|--------------2---|--------------|--------------2---|--------------|
|----0-2-0-3-4-----|------------0-|----0-2-0-3-4-----|------------0-|
+----------------0-+----2-3-3-4---+----------------0-+----0-2-3-4---+
+q e e e e e e +e e q q e e +e e e e e e e e e e H e e q e e e e
+----------------+--------------+-------------------+-------+---------------+
|------------2---|--------------|--------------2-14-|-----R-|-7-7-R-------9-|
|----2-0-3-4-----|------------0-|----0-2-0-3-4------|-------|-----------6---|
+--------------0-+----0-2-3-4---+-------------------+-0-0---+-------7-7-----+
e e H e e q e e e e q H e e q e e e e e e e e e e e e
+-------+---------------+-----+-2-2-------4---+-----------------+
|-----R-|-----R-------9-|---R-|-----R---1-----|-R-----R---R-----|
|-------|-7-7-------6---|-----|-------2-------|---------------0-|
+-0-0---+-------7-7-----+-0---+-------------0-+---0-2---3---4---+
+e e e e e e e e +e e e e e e e e +e e e e e e E s e e H
+------------------+------------------+------------------+-------+
|--------------2---|--------R---R-----|--------------2-2-|-----R-|
|----0-2-0-3-4-----|----------------0-|----0-2-0-3-4-----|-------|
+----------------0-+----0-2---3---4---+------------------+-0-0---+
e e q e e e e e e H e e q e e e e +e e q q e e +q e e e e e e
+---------------+-------+---------------+--------------+----------------+
|-7-7-R-------9-|-----R-|-7-7-R---------|--------------|------------2---|
|-----------6---|-------|-----------6---|------------0-|----2-0-3-4-----|
+-------7-7-----+-0-0---+-------7-7---0-+----0-2-3-4---+--------------0-+
+q q e e e e +e e e e e e e e +q e e e e e e +e e e e e e e e
+--------------+------------------+----------------+------------------+
|--------------|--------------2---|----------------|--------------2---|
|------------0-|----0-2-0-3-4-----|--------------0-|----0-2-0-3-4-----|
+----2-3-3-4---+----------------0-+----2-2-3-3-4---+----------------0-+
+e e e e e e e e e e e e e e e e +e e e e e e e e +e e e e e e e e
+------------------+-----------------+------------------+------------------+
|------------------|-------------2---|------------------|----4-4---2-------|
|----------------0-|-0-2-2-0-3-4-----|----------------0-|--------4---4-2---|
+----0-2-2-3-3-4---+---------------0-+----0-2-2-3-3-4---+----------------0-+
+e e e e e e e e e e e e e e e e +e e e e e e e e +e e e e e e e e
+------------------+-----------------+------------------+------------------+
|------------------|-----------2-----|------------------|--------------2---|
|----------------0-|-0-2-2-0-2---4---|----------------0-|----0-2-0-3-4-----|
+----0-2-2-3-3-4---+---------------0-+----0-2-2-3-3-4---+----------------0-+
+e e e e e e e e e e e e e e e e +e e e e e e e e +e e e e e e e e
+------------------+-----------------+------------------+------------------+
|--------R-----R---|---R-------2-----|------------------|--------------2---|
|----------------0-|-0---2-2-4---4---|----------------0-|----0-2-2-3-4-----|
+----2-2---4-4-----+---------------0-+----0-2-2-3-3-4---+----------------0-+
+e e e e e e e e e e e e e e e e +e e q e e e e +e e e e e e e e
+------------------+-----------------+----------------+------------------+
|------------------|---4-4---2-------|----------------|--------------2---|
|----------------0-|-0-----4---4-2---|--------------0-|----0-2-0-3-4-----|
+----0-2-2-3-3-4---+---------------0-+----0-2-3-3-4---+----------------0-+
+h e e e e h e e e e w q q h +w +H q
+------------+-----------+---+-------+----+------+
|------------|-R---------|-R-|---R---|----|------|
|--------2---|-------2---|---|-------|----|------|
+----3-4---0-+---3-4---0-+---+-0---0-+----+----0-+
==========================================================================
Created using the Bass Tab Creator
__ by Mario D'Alessio (motcid!marble!dalessio)
+|oo|+
+|oo|+ Notes: w = Whole h = Half q = Quarter
|| e = 8th s = 16th t = 32nd x = 64th
||
|| Capital durations are dotted notes
|| (equal to 1.5 times the duration value)
||
|| #
|| +----+ +----+
_ || _ |*--*+ = MEASURE |4:--| = TIME
_||_// |*--*+ REPEATS |4:--| SIGNATURES
| [] | +----+ (#=Num Repeats) +----+
| || |
/ [] + = TIE ^ = TRIPLET > = BEND
______/ H = HAMMER ON = SLIDE TO FRET R = Rest
P = PULL OFF X = SLIDE TO NOWHERE ~ = Trill




Ваше мнение



Капча