#----------------------------------PLEASE NOTE--------------------------------#
#This file is the author's own work and represents their interpretation of the#
#song. You may only use this file for private study, scholarship, or research.#
#-----------------------------------------------------------------------------#

Rush - III No One At The Bridge

[Riff 1]
Em(addF#)
e:----------------------------------------------------------|
B:----------------------------------------------------------|
G:-------0-----------0-----------0-----------0--------------|
D:-----4---4-------4---4-------4---4-------4---4------------|
A:---2-------2---2-------2---2-------2---2-------2----------|
E:-0-----------0-----------0-----------0-----------0--------|

[Riff 2]
Gm(addA)/Bb
e:----------------------------------------------------------|
B:----------------------------------------------------------|
G:-------0-----------0-----------0-----------0--------------|
D:-----7---7-------7---7-------7---7-------7---7------------|
A:---5-------5---5-------5---5-------5---5-------5----------|
E:-6-----------6-----------6-----------6-----------6--------|

[Riff 3]
C G G/F#
e:----------------------------------------------------------|
B:----------------------------------------------------------|
G:---------0----------0-----------0----------0--------------|
D:------2----------0-----------0----------0-----------------|
A:---3----------2-------------------------------------------|
E:-------------------------3----------2---------------------|

[Riff 4a] - Freely
A C(addD)
e:--0--------------3--3---3--3------------------------------|
B:--2--2-2-0~------3--3---3--3------------------------------|
G:--2--------------0--0---0--0------------------------------|
D:--2--------------2--2---2--2------------------------------|
A:--0--------------3--3---3--3------------------------------|
E:----------------------------------------------------------|

[Riff 4b] - wallop the F
F
e:--0---0-0--0-----1----------------------------------------|
B:--2---2-2--2-----1----------------------------------------|
G:--2---2-2--2-----2----------------------------------------|
D:--2---2-2--2-----3----------------------------------------|
A:--0---0-0--0-----3----------------------------------------|
E:-----------------1----------------------------------------|

Progression:

Fade in: [Riff 2] x1

[Riff 1] x1
[Riff 2] x1

[First half of Riff 1] x1

[Riff 3] x1

[Riff 1 + 2] x2 w/ lyrics:

Crying back to consciousness,
the coldness grips my skin.

The sky is pitching violently,
drawn by shrieking winds.

[Riff 4a] x3 w/ lyrics:

Seaspray blurs my vision.
Waves roll by so fast.
Save my ship of freedom.

[Riff 4b] x1 w/ lyrics:

I'm lashed, helpless, to the mast.

[Riff 1 + 2] x2

[First half of Riff 1] x1

[Riff 3] x1

[Riff 1 + 2] x2 w/ lyrics:

Remembering when first I held
the wheel in my own hands.

I took the helm so eagerly
and sailed for distant lands.

[Riff 4a] x3 w/ lyrics:

But now the sea's too heavy
And I just don't understand.
why must my crew desert me -

[Riff 4b] x1 w/ lyrics:

- when I need a guiding hand?

[Riff 1] x1

(These fretboxes apply to ALL of the remaining G, D, and Em7 chords here!)

[355433] [x57775] [x79787]
G D G D Em7 D E E
Call out for direction and there's no one there to steer.

G D G D Em7 D E E
Shout out for salvation but there's no one there to hear.

G D Em7 D E E G D Em7 D E E
Cry out supplication for the maelstrom is near.

G D G D Em7 D
Scream out desperation but -- no one dares to -

[Riff 1 + 2] x2 w/ lyrics:

hear.

[First half of Riff 1] x1

[Riff 3] x1

[Guitar Solo]

e:----------------------------------------------------------|
B:---------------------------------8------8-7---------------|
G:------------------------7--7~--7---7~-7-----7--7h9~~------|
D:-------------5--7--7s9------------------------------------|
A:10s5s7~-7-7-----------------------------------------------|
E:----------------------------------------------------------|

e:--7-9-10-10--10~-12--12~--10p9-9p7-|--------9-10--12------|
B:-----------------------------------|-----10~----------10~-|
G:-----------------------------------|----------------------|
D:-----------------------------------|----------------------|
A:-----------------------------------|----------------------|
E:-----------------------------------|----------------------|

e:12b14-12-10--12b14--12--10--------9-10-12--------------------|
B:------------------------------10~---------10~-8-7-5----------|
G:----------------------------------------------------7-6------|
D:--------------------------------------------------------7----|
A:-------------------------------------------------------------|
E:-------------------------------------------------------------|

e:------9-10-12------14b15--14-12---14b15--14-12------9-10-12----|
B:---10~---------10~-------------------------------10~--------10~|
G:---------------------------------------------------------------|
D:---------------------------------------------------------------|
A:---------------------------------------------------------------|
E:---------------------------------------------------------------|

e:----------------------------------------------------------|
B:---6~--8--6--8--6~s5~~-----------------------------------|
G:----------------------------------------------------------|
D:----------------------------------------------------------|
A:----------------------------------------------------------|
E:----------------------------------------------------------|

Em(addF#)
e:------------------------------------------------------------0~-|
B:--------------------------------------------------------0~-----|
G:-------0-----------0-----------0-----------0-----------0~------|
D:-----4---4-------4---4-------4---4-------4---4--------4~-------|
A:---2-------2---2-------2---2-------2---2-------2-----2~--------|
E:-0-----------0-----------0-----------0--------------0~---------|
slower




Ваше мнение



Капча