h - V Bacchus Plateau

[Riff 1]
Em7 A Dsus2 D Dsus2 D5
e:----------------0--2---0--2--0-----------------------|
B:--3--2---3--2---3--3---3--3--3--3--------------------|
G:--0--2---0--2---2--2---2--2--2--2--------------------|
D:--2--2---2--2---0--0---0--0--0--0--------------------|
A:--2--0---2--0----------------3-----------------------|
E:-----------------------------------------------------|

[Riff 2]
G D(addG)/F# E5
e:-----------------------------------------------------|
B:-----------------------------------------------------|
G:--------------0--------0-----------------------------|
D:------------0--------0-------------------------------|
A:----------2--------0---------------------------------|
E:--0--2--3--------2--------0--------------------------|

Progression:

Fade in with [Riff 1] x1

[Riff 1] x1

[Riff 1] x3 w/ lyrics:

Another endless day. Silhouettes of grey.
Another glass of wine. Drink with eyes that shine. G D
To days without that chill at morning. Long nights, time out of mind.

[xx0787]
D G A A D D [Riff 2] x1 D A
Draw another goblet from the cask of forty-three.
[xx0787]
D G A A D D [Riff 2] x1
Crimson misty memory, hazy glimpse of me.
[xx0787]
D A G G D D [Riff 2] x1 D A
Give me back my wonder, I've something more to give.
[xx0787]
D A G G D D [Riff 2] x1 Dsus4 Dsus4
I guess it doesn't matter; there's not much more to, not much more to

D D
live.

[Riff 1] x3 w/ lyrics:

Another foggy dawn. The mountain almost gone.
Another doubtful fear. The road is not so clear.
My soul grows ever weary, and the end is ever near. G D

[xx0787]
D G A A D D [Riff 2] x1 D A
Draw another goblet from the cask of forty-three.
[xx0787]
D G A A D D [Riff 2] x1
Crimson misty memory, hazy glimpse of me.

D A G G D D [Riff 2] x1 D A
Give me back my wonder, I've something more to give.

D A G G D D [Riff 2] x1 G G D
I guess it doesn't matter; there's not much more to, not much more to

D
live.

[Guitar Solo] in the key of D; this is part of it

e:-12h14p12h14p12h14p12--12h14h15--12h14p12h14p12h14p12---|
B:--------------------------------------------------------|
G:--------------------------------------------------------|
D:--------------------------------------------------------|
A:--------------------------------------------------------|
E:--------------------------------------------------------|

e:-14p12p10--10--12--12b14--10--12b14--12---12b14---------|
B:--------------------------------------------------------|
G:--------------------------------------------------------|
D:--------------------------------------------------------|
A:--------------------------------------------------------|
E:--------------------------------------------------------|

e:-7-9-10-10-10-10-10-10s7-----------------------------------|
B:-------------------------7-8-10--8p7p5--7b8r7p5------------|
G:--------------------------------------------------7--------|
D:-----------------------------------------------------------|
A:-----------------------------------------------------------|
E:-----------------------------------------------------------|

e:-----------------------------------------------------------|
B:-------------5-6-5-----------------------------------------|
G:-------------------7--7s8----------------------------------|
D:-----------------------------------------------------------|
A:-----------------------------------------------------------|
E:-----------------------------------------------------------|

If anyone can fix this - PLEASE do.




Ваше мнение



Капча