The Camera Eye By: Rush
================================
w +w +w +w +w +w +w +w +w +w w +w +w +w +w
+-----+----+----+----+----+----+----+----+----+----+---+----+----+----+----+
|4:-R-|----|----|----|----|----|----|----|----|----|---|----|----|----|----|
|4:---|----|----|----|----|----|----|----|----|----|-3-|----|----|----|----|
+-----+----+----+----+----+----+----+----+----+----+---+----+----+----+----+
+w +w +w w +w w +w +w w +w +w w +w +w +w +w
+----+----+----+---+----+---+----+----+---+----+----+---+----+----+----+----+
|----|----|----|---|----|-R-|----|----|---|----|----|---|----|----|----|----|
|----|----|----|-3-|----|---|----|----|-3-|----|----|-3-|----|----|----|----|
+----+----+----+---+----+---+----+----+---+----+----+---+----+----+----+----+
+w +w +w +w +w +w +w +w +w +w +w q H +w Q e+h w
+----+----+----+----+----+----+----+----+----+----+----+-----+----+-------+---+
|----|----|----|----|----|----|----|----|----|----|----|-----|----|-------|-3-|
|----|----|----|----|----|----|----|----|----|----|----|-1-1-|----|-3-----|---|
+----+----+----+----+----+----+----+----+----+----+----+-----+----+---3---+---+
w +w Q e+h w w +w Q Q q w +w Q e+h w w +w Q Q q
+---+----+-------+---+---+----+-------+---+----+-------+---+---+----+-------+
|---|----|-------|-3-|---|----|-----3-|---|----|-------|-3-|---|----|-----3-|
|-1-|----|-3-----|---|-1-|----|-3-----|-1-|----|-3-----|---|-1-|----|-3-----|
+---+----+---3---+---+---+----+---3---+---+----+---3---+---+---+----+---3---+
w +w +w +w w +w +w +w +w +w +w +w +w +w +w +w
+---+----+----+----+---+----+----+----+----+----+----+----+----+----+----+----+
|---|----|----|----|-R-|----|----|----|----|----|----|----|----|----|----|----|
|-1-|----|----|----|---|----|----|----|----|----|----|----|----|----|----|----|
+---+----+----+----+---+----+----+----+----+----+----+----+----+----+----+----+
+w +w +w +w Q q e q e e e q e e e Q q e q e e e q e e e
+----+----+----+----+---------+---------------+---------+---------------+
|----|----|----|----|---------|---------------|---------|---------------|
|----|----|----|----|-4-4-4-4-|-4-4-4-4-4-4-4-|-4-4-4-4-|-4-4-4-4-4-4-4-|
+----+----+----+----+---------+---------------+---------+---------------+
Q q e e e Q q e e e Q q e e e Q q e e e Q q e q e e e q e e e
+-----------+-----------+-----------+-----------+---------+---------------+
|-----------|-----------|-----------|-----------|---------|---------------|
|-3-3-3-3-3-|-3-3-3-3-3-|-3-3-3-3-3-|-3-3-3-3-3-|-4-4-4-4-|-4-4-4-4-4-4-4-|
+-----------+-----------+-----------+-----------+---------+---------------+
Q q e e s s e q e e e e e Q q e e e Q q e e e Q q e e e Q q e e e
+-------------+---------------+-----------+-----------+-----------+-----------+
|-------------|---------------|-----------|-----------|-----------|-----------|
|-4-4-4-4-4-4-|-4-4-4-4-4-4-4-|-3-3-3-3-3-|-3-3-3-3-3-|-3-3-3-3-3-|-3-3-3-3-3-|
+-------------+---------------+-----------+-----------+-----------+-----------+
Q Q q Q Q q Q Q q Q Q q Q Q q Q Q q Q Q q e e e q e q
+-------+-------+-------+-------+-------+-------+-------+-------------+
|-------|-6-4-3-|-------|-6-4-3-|-------|-------|-------|-------------|
|-4---4-|-------|-4---4-|-------|-3-----|-3-----|-3-----|-3-3-3-------|
+---4---+-------+---4---+-------+---1-3-+---1-3-+---1-3-+-------1-1-3-+

Q q e q Q Q q Q Q q Q Q q Q Q q Q Q q Q Q q e e e q e q
+---------+-------+-------+-------+-------+-------+-------+-------------+
|---------|-6-4-3-|-------|-6-4-3-|-------|-------|-------|-------------|
|-4-----4-|-------|-4---4-|-------|-3-----|-3-----|-3-----|-3-3-3-------|
+---4-4---+-------+---4---+-------+---1-3-+---1-3-+---1-3-+-------1-1-3-+
e q q e q q e q q e s s e e e e q e +e e e e q e e +e q e q q
+-------5---+-----------+-5-5---5---------+----5-5-5-------+------------+
|---R-5---R-|-5---R-5---|-----5---5---R-5-|----------5---R-|----5---5---|
|-3---------|---3-----3-|-----------3-----|------------3---|------3---3-|
+-----------+-----------+-----------------+----------------+------------+
Q Q s E +e Q Q e +e e q q q e q e q q q q e q e q q q q +e Q Q e
+-----5-7-+----5-----+------------+-----------+-----------+---------+------7-5-+
|---5-----|--------5-|----7-5-7---|-------3-3-|-----------|-3-3-----|----5-----|
|-3-------|------3---|------------|---3-------|-3-----3---|-----1-3-|----------|
+---------+----------+----------1-+-1---1-----+---1-1---1-+---------+----------+
+q q e Q q q q e e +e e q q q q e q e q q q Q e +q Q Q Q Q q
+--------5-+-----------+------------+-----------+---------+----5---+-------+
|----------|-5-7-------|------3-3---|---------3-|-3-----5-|------5-|---7-5-|
|----3-3---|---------3-|----------3-|-----3-----|---1-3---|--------|-3-----|
+----------+-----1-1---+----1-------+-1-1---1---+---------+--------+-------+
q q e q e q q q q e q e q q q Q q e +q q q e e +e e s s e e e q
+-----------+---------+-----------+---------+------------+------5-5---5-----+
|-7---------|-3-3-----|-------3-3-|---------|--------R-5-|----------5---5---|
|-------3---|-----3---|---3-------|-1-3-3-3-|----3-3-----|----3-----------3-|
+---1-1---1-+-------1-+-1---1-----+---------+------------+------------------+
+e q Q q e s s e e e e e e q q e e e e +e e e e q e e +e e e e e e q
+----------+---5-5-5-5-5-5-5-4-+-2-----------+----------------+----------------+
|----------|-R-----------------|---3-R---R---|----------3-R---|------3-2-3-----|
|----3-3-3-|-------------------|-------------|------3---------|------------2-3-|
+----------+-------------------+-------1---1-+----1---1-----1-+----1-----------+
+e q Q q Q q e q q Q Q q Q Q q Q Q q Q Q q Q Q q Q Q q Q Q
+----------+---------+-------+-------+-------+-------+-------+-------+-------+
|----------|---------|-------|---6-4-|-3-----|---6-4-|-3-----|-------|-------|
|----3-3-3-|-3-3-3-3-|-3-4---|-4-----|---4---|-4-----|---3---|---3---|---3---|
+----------+---------+-----4-+-------+-----4-+-------+-----1-+-3---1-+-3---1-+
q Q q e q Q Q q Q Q s s e Q q e q Q Q q Q Q q Q Q q Q Q
+---------+-------+-------+-------------+-------+-------+-------+-------+
|---------|-------|---6-4-|-3-4-3-------|---6-4-|-3-----|-------|-------|
|---3-----|---4---|-4-----|-------4-----|-4-----|---3---|---3---|---3---|
+-3---1-1-+-3---4-+-------+---------4-4-+-------+-----1-+-3---1-+-3---1-+
q Q Q q H +w +q H +w +q H +w +w +H e s s e e q e Q w
+-------+-----+----+------+----+------+----+----+----------+-5---------+---+
|-------|-----|----|------|----|----R-|----|----|----5-5-5-|---5---R---|-R-|
|---3---|---4-|----|----4-|----|------|----|----|----------|-----4---4-|---|
+-3---1-+-3---+----+------+----+------+----+----+----------+-----------+---+
+w +w +w +h+Q e e e e h e e e e e+h +q H +w +w +w +q H
+----+----+----+--------+-----------+-----------+------+----+----+----+------+
|----|----|----|--------|-------R---|-------R---|------|----|----|----|------|
|----|----|----|------3-|-3-3-3---3-|-3-3-3-----|----4-|----|----|----|----3-|
+----+----+----+--------+-----------+-----------+------+----+----+----+------+
+w +w +w +q H +w +q H +q H +q H +w +w +w +q Q Q
+----+----+----+------+----+------+------+----5-+----+----+----+--------+
|----|----|----|------|----|----4-|----6-|------|----|----|----|--------|
|----|----|----|----4-|----|------|------|------|----|----|----|----4-4-|
+----+----+----+------+----+------+------+------+----+----+----+--------+
q e e e e e e e e Q q e e e e e e e e e e e Q q e e e e e e q e
+---------6---6-+---6-------+-----8-8-6-6-8-8-+-6---------+-----------5-5-+
|-------6---R---|-6---------|-6-6-------------|---6-------|---------5-----|
|-4-4-4---------|-----4-4-4-|-----------------|-----3-3-3-|-3---3-3-------|
+---------------+-----------+-----------------+-----------+---3-----------+
e e e e e e e e e e e e e e e e e e h q +q h q +q h q +q h q
+---5---------5-5-+---5-------------+---------+--------+--------+--------+
|-5-------5-------|-5---2-2-3-3-5-5-|-3-2-----|--------|--------|--------|
|-----3-3---3-----|-----------------|-----4-4-|----4-4-|----4-4-|----4-4-|
+-----------------+-----------------+---------+--------+--------+--------+
q h q q q q q q q q q q q q q q Q Q q Q Q q q e q e +q q e q e
+-------+---------+---------+---------+-------+-------+-----------+------------+
|-------|---------|---------|---------|-------|---6-4-|-3-6-R-6-R-|----6-R-6-R-|
|-4-3-3-|-3-3-3-3-|-3-3-3-3-|-3-3-3-3-|-3-4---|-4-----|-----------|------------|
+-------+---------+---------+---------+-----4-+-------+-----------+------------+
+h h +q q h +w +q Q Q +q H +q H +w +q Q Q +q H +q H +w
+------+--------+----+--------+------+------+----+--------+------+------+----+
|----6-|--------|----|--------|----3-|------|----|--------|----3-|------|----|
|------|----1-1-|----|----3---|------|----1-|----|----3---|------|----1-|----|
+------+--------+----+------3-+------+------+----+------3-+------+------+----+
+q Q Q q H +w +q Q Q +q H +q H +w +q Q Q q H +w +w
+--------+-----+----+--------+------+------+----+--------+-----+----+----+
|--------|-3---|----|--------|----3-|------|----|--------|-3---|----|----|
|----3---|---1-|----|----3---|------|----1-|----|----3---|---1-|----|----|
+------3-+-----+----+------3-+------+------+----+------3-+-----+----+----+
+h h +w +w +w +h+Q e +w +w +w +h Q e +q q Q e +q q Q e
+------+----+----+----+--------+----+----+----+--------+----------+----------+
|----R-|----|----|----|--------|----|----|----|--------|------6-4-|----3-----|
|------|----|----|----|------3-|----|----|----|----4---|----4-----|------4---|
+------+----+----+----+--------+----+----+----+------4-+----------+--------4-+
+q q Q e +q q Q e +q q Q e +q q Q e +q q e e e e +e e q Q e
+----------+----------+----------+----------+--------------+------------+
|------6-4-|----3-----|----------|----------|------R-------|------------|
|----4-----|------3---|------3---|------3---|--------3-3---|--------4---|
+----------+--------1-+----3---1-+----3---1-+----3-------1-+----1-3---4-+
+q q Q e +q q Q e +q q e e e e +e e q Q e +q q Q e +q q Q e
+----------+----------+--------------+------------+----------+----------+
|------6-4-|----3-----|------6---6-4-|----4-3-----|----------|----------|
|----4-----|------4---|----4---6-----|--------3---|------3---|------3---|
+----------+--------4-+--------------+----------1-+----3---1-+----3---1-+
+q q e q e +q q q e e e e q q q e q e s s e e e q e e e e e e
+------------+------------+---5-------+-------5-5---5---+---------5-5-5-+
|------R-----|--------R-5-|-R---R-5---|-R-5-------5---5-|---R-5-R-------|
|--------3---|------3-----|---------3-|-----3-----------|-3-------------|
+----3-----1-+----3-------+-----------+-----------------+---------------+
q q e q e q q Q e +q s E e q e Q Q q q q e q e q q q q e q e q q
+-----------+-5-------+----5-7-7-5---+-------+-----------+---------+-----------+
|-5---R-5---|---5---5-|------------5-|---7-5-|-7---------|-3-3-----|-------3-3-|
|---3-----3-|-----3---|--------------|-3-----|-------3---|-----3---|---3-------|
+-----------+---------+--------------+-------+---1-1---1-+-------1-+-1---1-----+
q Q Q Q Q q +e Q q q q e q e q q q q e e +e e q q q Q q e q
+-------+-5-----+----------+-----------+-----------+------------+-------7-+
|-----5-|---5---|----7-5-7-|---------3-|-3---------|------3-3---|---5-5---|
|-1-3---|-----3-|----------|-----3-----|---3-----3-|----------1-|-3-------|
+-------+-------+----------+-1-1---1---+-----1-1---+----1-------+---------+
e q e Q e +q q q q e q e q q q q e q e q q q q e q q e q
+-7-5-------+----------+-----------+-----------+---------+-----------+
|-----5---7-|----5-7---|-------3-3-|-----------|-3-3-----|-R-----R---|
|-------3---|----------|---3-------|-3-----3---|-----1-3-|---3-3---3-|
+-----------+--------1-+-1---1-----+---1-1---1-+---------+-----------+
q e q e s s e e e q e q e +e e q e s s e e e e e e e e q
+---------5-5---+-5-----------+----------5-5-5-5-+-5-5-5-4-2-----+
|---R-5-------5-|---5---R-----|----R-------------|-----------5-3-|
|-3-----3-------|-----3---3-3-|------3-3---------|---------------|
+---------------+-------------+------------------+---------------+
e e e e e e e e q e e e e e e e e q e q e +e e q q e e +e e q q q
+-----------------+---------------+-------------+--------------+------------+
|-R---R---R-------|-3-R---R-------|-3-----R-----|----R-----R---|------------|
|-------------3---|-----------3---|-----3---3-3-|------3-3---3-|----3-3-3-4-|
+---1---1---1---1-+-----1---1---1-+---1---------+--------------+------------+
+e Q q q +e Q q q +e Q q e e e q e q q +e Q q q +e Q q q
+----------+----------+------------+-----------+----------+----------+
|--------6-|----4-3---|--------6---|-6-4-4-3---|----------|----------|
|------4---|--------4-|------4---6-|---------3-|--------3-|--------3-|
+----4-----+----------+----4-------+-----------+----1-3---+----1-3---+
+e Q q e e e e e e q q +e Q q e e e q e q q +e Q q q +e Q q q
+------------+-------------+------------+-----------+----------+----------+
|--------R---|-------------|--------6---|-6-4-4-3---|--------6-|----4-3---|
|----------3-|-3-3-------4-|------4---6-|---------4-|------4---|--------3-|
+----1-3-----+-----1-1-3---+----4-------+-----------+----4-----+----------+
+e Q q q +e Q q q +e Q q e e e e e e q q +w +w +w +H q +w
+----------+----------+------------+-------------+----+----+----+------+----+
|----------|----------|--------R---|-------------|----|----|----|----R-|----|
|--------3-|--------3-|----------3-|-3-3-------4-|----|----|----|------|----|
+----1-3---+----1-3---+----1-3-----+-----1-1-3---+----+----+----+------+----+
+w +h+Q e e e e e e e q e e H +w +w +w +w +w +w +H q
+----+--------+-----5---5-----+-------+----+----+----+----+----+----+------+
|----|--------|-R-------------|-R---R-|----|----|----|----|----|----|------|
|----|------3-|---3---3---3-4-|---4---|----|----|----|----|----|----|----4-|
+----+--------+---------------+-------+----+----+----+----+----+----+------+
+w +w +w +H q +w +H q +w +H q +w +w +w +H q +w +w
+----+----+----+------+----+------+----+------+----+----+----+------+----+----+
|----|----|----|------|----|------|----|------|----|----|----|------|----|----|
|----|----|----|----3-|----|----3-|----|----4-|----|----|----|----3-|----|----|
+----+----+----+------+----+------+----+------+----+----+----+------+----+----+
+w +h q q +e q e e e e e e q e e e e e e q e e q e e e e e e e q
+----+----5---+----------------+---------------+---6-6---6-6-+-----3-3-------+
|----|--------|----------------|-6-------------|-6-----6-----|-6-6-----6-6---|
|----|------4-|----4-4-4---4-4-|---4-4-4---4-4-|-------------|-------------3-|
+----+--------+----------4-----+---------4-----+-------------+---------------+
+e q e e e e e e q e e e e e e e e e e e e e +e e e e e e q
+----------------+---5-5---------+---5---------7-5-+----7-5-5-7-5---+
|--------------5-|-----------5---|---------5-------|----------------|
|----3-3-3---3---|-3-----3-3---3-|-3---3-3---3-----|--------------4-|
+----------3-----+---------------+-----------------+----------------+
+e q e e e e e e e e e e e q +e e e e e e e e e q e q q
+----------------+-----------3---+--------------6-6-+---6-6-----+
|----------------|-6-------6-----|----------6-------|-6-----6---|
|----4-4-4---4-4-|---4-4-4-----4-|----4-4-4---4-----|---------3-|
+----------4-----+---------------+------------------+-----------+
+e q e e e e e e e e e e e e e +e q q s s e e e e e e e e q
+----------------+---5-5-------5-4-+----------------+---------------+
|--------------5-|---------5-------|----7-5-3-3-2-3-|-5-3-2-3-5-3---|
|----3-3-3---3---|-3-----3---3-----|----------------|-------------4-|
+----------3-----+-----------------+----------------+---------------+
+e q e e e e e e q e e e q +e q e e e e e e e e e e e q
+----------------+-------------+----------------+---------------+
|--------------6-|---4-3-4-6---|------------6---|-6-4-3-4-6-----|
|----4-4-4---4---|-4---------4-|----4-4---4---4-|-----------4-3-|
+----------4-----+-------------+--------4-------+---------------+
+e q e e e e e +e q q q e +e q q e e e e e e e e e q +e Q q q
+----------------+------------+--------------+---------------+----------+
|----------------|------------|--------------|---------------|--------6-|
|----3-3-3---3---|------------|----1-2-------|-----1-2-3-3-4-|------4---|
+----------3---0-+----1-2-3-5-+--------0-0-1-+-3-5-----------+----4-----+
+e Q q q +e Q q e e e q e e e q +e Q q q +e q e q e e
+----------+------------+-------------+----------+--------------+
|----4-2---|--------6---|-6-4-3-4-6---|----------|--------------|
|--------4-|------4---4-|-----------3-|--------3-|----------3---|
+----------+----4-------+-------------+----1-3---+----1-1-3---0-+
e e e e e e e e e e e e e e q +q h q +q h q +q h q +q q q q
+-----------------+---------------+--------+--------+--------+----------+
|-----------------|---------------|--------|--------|--------|----------|
|---------1-2-3---|---------2-3-4-|----4-4-|----4-4-|----4-4-|----4-4-3-|
+-1-2-3-5-------0-+-1-2-3-5-------+--------+--------+--------+----------+
q q q q q q q q q q q q e e e e e e q +e Q q q +e Q q q e Q q q
+---------+---------+---------+---------------+----------+----------+---------+
|---------|---------|---------|---------------|--------6-|----4-3-6-|-R-6-R-6-|
|-3-3-3-3-|-3-3-3-3-|-3-3-3-3-|-3-3-3-3-3-3-4-|------4---|----------|---------|
+---------+---------+---------+---------------+----4-----+----------+---------+
e Q h q H +w +w
+-------+-----+----+----+
|-R-6-R-|-6---|----|----|
|-------|-----|----|----|
+-------+---4-+----+----+
==========================================================================
Created using the Bass Tab Creator
__ by Mario D'Alessio (motcid!marble!dalessio)
+|oo|+
+|oo|+ Notes: w = Whole h = Half q = Quarter
|| e = 8th s = 16th t = 32nd x = 64th
||
|| Capital durations are dotted notes
|| (equal to 1.5 times the duration value)
||
|| #
|| +----+ +----+
_ || _ |*--*+ = MEASURE |4:--| = TIME
_||_// |*--*+ REPEATS |4:--| SIGNATURES
| [] | +----+ (#=Num Repeats) +----+
| || |
/ [] + = TIE ^ = TRIPLET > = BEND
______/ H = HAMMER ON = SLIDE TO FRET R = Rest
P = PULL OFF X = SLIDE TO NOWHERE ~ = Trill




Ваше мнение



Капча