The Big Wheel By: Rush
========================
h+Q e +h+Q e h+Q e +h+Q e h+Q e +h+Q e e+h e e e
+---------+--------+-------+--------+-------+--------+-----------+
|4:-------|--------|-------|--------|-------|--------|-----------|
|4:-6---4-|--------|-------|------6-|-6---4-|--------|-----------|
+---------+------2-+-2---0-+--------+-------+------2-+-2---2-2-2-+
e e e e e e e e Q q e e e Q q e e e Q q e e e Q e+h e e e q e e e
+-----------------+-----------+-----------+-----------+-------+---------------+
|-----------------|-----------|-----------|-----------|-------|---------------|
|-----------------|---5-5-4---|---5-5-4---|---5-5-4---|-------|-------2-2-4-2-|
+-0-0-0-0-0-0-0-0-+-0-------5-+-0-------5-+-0-------5-+-0-3---+-5-5-5---------+
Q q e e e Q q e e e Q q e e e Q q e e e e e e q e e e Q q e e e
+-----------+-----------+-----------+-----------+---------------+-----------+
|-----------|-----------|-----------|-----------|---------------|-----------|
|---2-2-----|---2-2-4-2-|---2-2-----|---2-2-4-2-|-------2-2---2-|---5-5-4---|
+-5-----4-4-+-5---------+-5-----4-4-+-5---------+-5-5-5-----4---+-0-------5-+
q e Q q Q q e e e q e Q e e e e e q e e e Q q e e e Q q e e e
+---------+-----------+-----------+---------------+-----------+-----------+
|---------|-----------|-----------|---------------|-----------|-----------|
|-------5-|---5-5-4---|-------5-5-|-------2-2-4-2-|---2-2-----|---2-2-4-2-|
+-0-0-3---+-0-------5-+-0-0-3-----+-5-5-5---------+-5-----4-4-+-5---------+
q e q e e e Q q e e e Q q e e e Q q e e e q e Q q Q q e e e
+-------------+-----------+-----------+-----------+---------+-----------+
|-------------|-----------|-----------|-----------|---------|-----------|
|-----2-2-----|---2-2-4-2-|---2-2---2-|---5-5-4---|-------5-|---5-5-4---|
+-5-5-----4-4-+-5---------+-5-----4---+-0-------5-+-0-0-3---+-0-------5-+
Q q e q Q q e q +e e e e e e e e e e e q e q e e e q e e e
+---------+---------+------------------+-------------+---------------+
|---------|---------|------------------|-------------|---------------|
|---5-5-4-|-2-1-1---|--------------6-4-|-2-2-2-1-1---|-----------6-4-|
+-0-------+-------4-+----4-4-4-4-4-----+-----------2-+-0-0-0-0-0-----+
e e e q e q +e e e e e e e e q e q e e e e e e q e q q e q e q
+-------------+------------------+-------------+-------------+-----------+
|-------------|------------------|---2---------|-------------|-----------|
|-2-2-2-1-1---|--------------6-4-|-------------|-----2-------|-2-2-1-1---|
+-----------4-+----4-4-4-4-4-----+-0---2-2-4-2-+-0-0---2-2-4-+---------4-+
+e e e e e e e e e e e q e e e e e E E e e e e e e q e q
+------------------+---------------+---------------+-------------+
|------------------|---------------|---------------|-------------|
|--------------6-4-|-2-2-2-1-1-----|-----2-----2---|-2-2-2-1-1---|
+----4-4-4-4-4-----+-----------2-5-+-0-0---0-0---0-+-----------4-+
+e e e e e e e e q e q e e e q e q e e e Q e+h Q Q e e Q q e e e
+------------------+-------------+-------------+-------+---------+-----------+
|------------------|-------------|-------------|-------|-------2-|-----------|
|--------------6-4-|-------------|-------------|-------|-----4---|---2-2-4-2-|
+----4-4-4-4-4-----+-0-0-2-2-4-2-+-0-0-2-4-2-4-+-0-2---+-0-2-----+-5---------+
Q q e e e Q q e e e Q q e e e Q q e e e Q q e e e Q q e e e
+-----------+-----------+-----------+-----------+-----------+-----------+
|-----------|-----------|-----------|-----------|-----------|-----------|
|---2-2-----|---2-2-4-2-|---2-2-----|---2-2-4-2-|---2-2---2-|---5-5-4---|
+-5-----4-4-+-5---------+-5-----4-4-+-5---------+-5-----4---+-0-------5-+
Q q e q Q q e e e Q q e e e Q q e e e Q q e e e Q q e e e
+---------+-----------+-----------+-----------+-----------+-----------+
|---------|-----------|-----------|-----------|-----------|-----------|
|-------5-|---5-5-4---|-------5-5-|---2-2-4-2-|---2-2-----|---2-2-4-2-|
+-0-3-3---+-0-------5-+-0-3-3-----+-5---------+-5-----4-4-+-5---------+
Q q e e e Q q e e e Q q e e e Q q e e e Q q e q Q q e e e
+-----------+-----------+-----------+-----------+---------+-----------+
|-----------|-----------|---------2-|-----------|---------|-----------|
|---2-2-----|---2-2-4-2-|---2-2-4---|---5-5-4---|-------5-|---5-5-4---|
+-5-----4-4-+-5---------+-5---------+-0-------5-+-0-3-3---+-0-------5-+
Q q e e e q e q e q +e e e e e e e e e e e q e e e Q e e e e e
+-----------+-----------+------------------+---------------+-------------+
|-----------|-----------|------------------|---------------|-------------|
|---5-5-4---|-2-2-1-1---|--------------6-4-|-2-2-2-1-1-----|---2-----2-4-|
+-0-------5-+---------4-+----4-4-4-4-4-----+-----------2-5-+-0---0-0-----+
q e q e q +e q e e e e e q e q e q q e q e q q e q e q
+-----------+----------------+-----------+-----------+-----------+
|-----------|----------------|-----------|-----------|-----------|
|-2-2-1-1---|------------6-4-|-----------|-----------|-2-2-1-1---|
+---------4-+----4-4-4-4-----+-0-0-2-2-4-+-0-0-2-2-4-+---------4-+
+e e e e e e e e e e e q e e e e e E E e e e q e q e q
+------------------+---------------+---------------+-----------+
|------------------|---------------|---------------|-----------|
|--------------6-4-|-2-2-2-1-1-----|-----2-----2---|-2-2-1-1---|
+----4-4-4-4-4-----+-----------2-5-+-0-0---0-0---0-+---------4-+
+e e e e s s e e e q e q e q q e e+h q e q e q e e e e+h h+Q e
+--------------------+-----------+---------+-----------+-----------+-------+
|--------------------|-----------|---------|-----------|-----------|-------|
|--------2-1-2-1-----|-----------|---------|-----------|-----------|-6---4-|
+----4-4---------4-2-+-0-0-2-2-4-+-0-0-2---+-0-0-2-2-4-+-0-0-0-2---+-------+
+h+Q e h+Q e +h+Q e h+Q e +h+Q e w h e e e e Q q e e e
+--------+-------+--------+-------+--------+---+-----------+-----------+
|--------|-------|--------|-------|--------|---|-----------|-----------|
|--------|-------|------6-|-6---4-|--------|---|-----------|---2-2-4-2-|
+------2-+-2---0-+--------+-------+------2-+-2-+-0-0-0-0-0-+-5---------+
Q q e e e Q e e e e e e e e e e e e e e e e e e e e e
+-----------+-------------+-----------------+-----------------+
|-----------|-------------|-----------------|-----------------|
|---2-2-----|---2-2-2-4-2-|-------2-2-2---2-|-----------------|
+-5-----4-4-+-5-----------+-5-5-5-------4---+-0-0-0-2-2-2-4-2-+
e e e e e e e e e e e q e e e e e e e e e e e e e e e e e e e
+-----------------+---------------+-----------------+-----------------+
|-----------1---1-|---------------|-----------1-1-1-|-------2-2-2-4---|
|-----------------|---------------|-----------------|-5-5-5---------5-|
+-0-0-0-2-2---2---+-0-0-0-2-2-4-2-+-0-0-0-2-2-------+-----------------+
+e e e e e e e e e e e e e e e e +e e e q e e e Q q e q
+------------------+-----------------+----------------+---------+
|--------2-2-2-----|-------2-2-2-4---|--------2-2-----|---------|
|----5-5-------4-4-|-5-5-5---------5-|----5-5-----4-2-|---------|
+------------------+-----------------+----------------+-0-2-2-4-+
e e e e e e e e e e e q e e e e e e e e e e e e e e q e e e
+-----------------+---------------+-----------------+---------------+
|-----------1---1-|---------------|-----------1-1-1-|-------2-2-4---|
|-----------------|---------------|-----------------|-5-5-5-------5-|
+-0-0-0-2-2---2---+-0-0-0-2-2-4-2-+-0-0-0-2-2-------+---------------+
+e e e q e e e e e e q e e e +e e e q e e e e e e e e e e e
+----------------+---------------+----------------+-----------------+
|--------2-2-----|-------2-2-4---|--------2-2-----|---------R-------|
|----5-5-----4-4-|-5-5-5-------5-|----5-5-----4-2-|-----------------|
+----------------+---------------+----------------+-0-0-0-2---2-4-2-+
Q q e e e Q q e e e Q q e e e e e e e e e q +e q e e e e e
+-----------+-----------+-----------+---------------+----------------+
|-----------|-----------|-----------|---------R-----|----------------|
|-----4-2-4-|-2-----4---|-2-----4---|-2-2-2-1---1---|------------6-4-|
+-0-2-------+---5-5---5-+---5-5---5-+-------------4-+----4-4-4-4-----+
e e e q e e e Q q e e e Q q e q +e q e e e e e q e q e e e
+---------------+-----------+---------+----------------+-------------+
|---------------|-----------|---------|----------------|-------------|
|-2-2-2-1-1-----|-------6-4-|-2-1-1---|------------6-4-|---2---------|
+-----------2-5-+-0-0-0-----+-------4-+----4-4-4-4-----+-0---2-2-4-2-+
e e e q e e e Q q e q +e q e e e e e e e e q e e e e e E E e e e
+---------------+---------+----------------+---------------+---------------+
|---------------|---------|----------------|---------------|---------------|
|---2-----------|-2-1-1---|------------6-4-|-2-2-2-1-1-----|-----2-----2---|
+-0---0-2-4-2-4-+-------4-+----4-4-4-4-----+-----------2-5-+-0-0---0-0---0-+
Q q e q +e q e e e e e e e e q e e e Q q e e e Q e e e e e
+---------+----------------+---------------+-----------+-------------+
|---------|----------------|---------------|-----------|-------R-----|
|-2-1-1---|------2-2-1-----|-----2---------|-----4-4---|-2-1-2---1---|
+-------4-+----4-------4-2-+-0-0---2-2-4-2-+-0-2-----5-+-----------4-+
+e q e e e e e e e e q e q e e e e e E E Q q e q +e q e e e e e
+----------------+-------------+---------------+---------+----------------+
|----------------|-------------|---------------|---------|----------------|
|------------6-4-|-2-2-2-1-1---|---------------|-2-1-1---|------2-2-1-----|
+----4-4-4-4-----+-----------2-+-0-0-0-0-0-0-0-+-------4-+----4-------4-2-+
q e q e e e e e e q e e e q e q e e e e e e q e e e Q e e e e e
+-------------+---------------+-------------+---------------+-------------+
|-------------|---------------|-------------|---------------|-------R-----|
|---2---------|---2-----------|---2---------|---2-----4-6-4-|-2-1-2---1---|
+-0---2-2-4-2-+-0---0-2-4-2-4-+-0---2-2-4-2-+-0---0-2-------+-----------4-+
+e q e e e e e q e q e e e e e e q e e e e e e q e q +e q e e e e e
+----------------+-------------+---------------+-------------+----------------+
|----------------|-------------|---------------|-------------|----------------|
|------------6-4-|---2---------|---2-----------|-2-2-2-1-1---|------2-2-1-----|
+----4-4-4-4-----+-0---2-2-4-2-+-0---0-2-4-2-4-+-----------4-+----4-------4-2-+
e e e q e e e q e q e e e e e e q e e e q e q e e e
+---------------+-------------+---------------+-------------+
|---------------|-------------|---------------|-------------|
|---2-----------|-------------|---2-----------|-------------|
+-0---0-2-4-2-4-+-0-0-2-4-2-4-+-0---0-2-4-2-4-+-0-0-2-4-2-4-+
==========================================================================
Created using the Bass Tab Creator
__ by Mario D'Alessio (motcid!marble!dalessio)
+|oo|+
+|oo|+ Notes: w = Whole h = Half q = Quarter
|| e = 8th s = 16th t = 32nd x = 64th
||
|| Capital durations are dotted notes
|| (equal to 1.5 times the duration value)
||
|| #
|| +----+ +----+
_ || _ |*--*+ = MEASURE |4:--| = TIME
_||_// |*--*+ REPEATS |4:--| SIGNATURES
| [] | +----+ (#=Num Repeats) +----+
| || |
/ [] + = TIE ^ = TRIPLET > = BEND
______/ H = HAMMER ON = SLIDE TO FRET R = Rest
P = PULL OFF X = SLIDE TO NOWHERE ~ = Trill




Ваше мнение



Капча