The Big Money By: Rush
==========================
w +w +w +w w +w +w +w w +w +w +w w +w +w
+-----+----+----+----+---+----+----+----+---+----+----+----+---+----+----+
|4:---|----|----|----|---|----|----|----|---|----|----|----|---|----|----|
|4:---|----|----|----|---|----|----|----|---|----|----|----|---|----|----|
+---7-+----+----+----+-7-+----+----+----+-7-+----+----+----+-7-+----+----+
+H q e e e e e e e e e e e e 8 e e q e e q e e e e e e e e
+------+-----------------------------+-------9----7+---9---7---9-----+
|------|*6:---------------------4---*|4:-------------|-----R---R-------|
|----9|*4:-7-7---7-5-5-5-7-------5-*|4:-7-7---5-5---|-7-----------5-7-|
+------+--------7-----------5-5------+---------------+-----------------+
e e e e s s e e e e e e e e e e e e e e e s s e e e e e e e e e e e
+-9---7-------------+---9---7---9-----+-9---7---7-7-------+---9---7---9-----+
|---R---R-5H6-------|-----R---R-------|---9---9-----9-7---|-----R---R-------|
|-------------7-5-7-|-7-----------5-7-|-----------------5-|-7-----------5-7-|
+-------------------+-----------------+-------------------+-----------------+
e e e e s s e e e e e e e e e e e e e e e s s e e e e e e e e e e e
+-9---7-------------+---9---7---9-----+-9---7---7-7-------+-----------------+
|---9---9-5H6-------|-----R---R-------|---9---9-----9-7-9-|---9---7-R-9-----|
|-------------7-5-7-|-7-----------5-7-|-------------------|-----------------|
+-------------------+-----------------+-------------------+-7---7-------5-7-+
e e e e s s e e e e e e e e e e e e e e e s s e e e e e e e e e e e
+-------------------+-----------------+-------------------+-----------------+
|-9---7-------------|---9-R-7---9-----|-9---7-------------|---9---7-R-9-----|
|---9---9-5H6-------|---------9-------|---9---9-5-5-------|-----------------|
+-------------7-5-7-+-7-----------5-7-+-------------7-5-7-+-7---7-------5-7-+
e e e e s s e e e e e e e e e e e e e e e s s e e e
+-------------------+-----------------+-------------------+
|-9---7-------------|---9-R-7-R-9-----|-9---7-------------|
|---9---9-5-5-------|-----------------|---9---9-7-7-7-7-7-|
+-------------7-5-7-+-7-----------5-7-+-------------------+
e e e e Q e e e e e 5 e e e e Q e e e e e e e e e Q e e e e e 3
+-------------------------+---------------------+------------------4----+
|*6:-----------------4---*|---------------4-R-6-|*-7-7---7-5-7-------5-*|
|*4:-7-7---7-5-7-------5-*|-7-7---7-5-7---------|*-----7-------5-5-----*|
+--------7-------5-5------+-----7-------5-------+-----------------------+
e e e e Q e e e e e e e q e e q e e e e e e e e e e e e
+---------------------+-----9-----7---------+-----9---7---9-----+
|-7-7---7-5-7---------|-----------------4---|4:-----R---R-------|
|-----7-------2-3-4-5-|-7-7---5-5---------5-|4:-7-----------5-7-|
+---------------------+-------------5-5-----+-------------------+
e e e e s s e e e e e e e e e e e e e s s e s s e e e e e e e e e e e
+-9---7-------------+---9---7---9-----+-9---7-7---7-7-------+---9---7---9-----+
|---R---R-5H6-------|-----R-----------|---9-----9-----9-7---|-----R---R-------|
|-------------7-5-7-|-7-------7---5-7-|-------------------5-|-7-----------5-7-|
+-------------------+-----------------+---------------------+-----------------+
e e e e s s e e e e e e e e e e e e e e e s s s s s E e e e e e e e e
+-9---7-------------+---9---7---9-----+-9-7-6-7-7-7-6-------+-----------------+
|---R---R-5H6-------|-----R---R---R---|---------------9-7-9-|---9-R-7-R-9-----|
|-------------7-5-7-|-7-------------7-|---------------------|-----------------|
+-------------------+-----------------+---------------------+-7-----------5-7-+
e e e e s s e e e e e e e e e e e e e e e e e e e e e e q e e e
+-------------------+-----------------+-----------------+---------------+
|-9---7-------------|---9---7-R-9-----|-9---7---6-7-6---|---9---7-9-----|
|---9---9-5H6-------|-----------------|---9---9-------7-|---------------|
+-------------7-5-7-+-7---7-------5-7-+-----------------+-7---7-----5-7-+
e e s s e s s e e e e e e e e e e e e e e e e e e e
+---------------------+-----------------+-----------------+
|-9---7-7-------------|---9-R-7-R-9-----|-9---7-----------|
|---9-----9-5H6-------|-----------------|---9---9-7-7-5-7-|
+---------------7-5-7-+-7-----------5-7-+-----------------+
e e e e Q e e e e e 5 e e e e Q e e q e e e e e Q e e e e e 3
+-------------------------+-------------------+------------------4----+
|*6:-----------------4---*|-----------------6-|*-7-7---7-5-7-------5-*|
|*4:-7-7---7-5-7-------5-*|-7-7---7-5-7-------|*-----7-------5-5-----*|
+--------7-------5-5------+-----7-------5-5---+-----------------------+
e e e e Q e e e e e e e q e e e e e e e e e q e e q e e e e 3 Q e+h
+---------------------+-----9-----7---------+------------7----------+---------+
|-7-7---7-5-7---------|-----------------4---|*-----------------4---*|4:-------|
|-----7---------4-5-6-|-7-7---5-5---------5-|*-7-7---5-5---5-5---5-*|4:-7-5---|
+-------------7-------+-------------5-5-----+------0----------------+---------+
+w h h +w h h +w 5 h h +Q s s e s s e e
+----+------+----+-----+-----+-----+---------------------+
|----|*-----|----|-----|----*|-----|11:----6-6-7-6-6-7---|
|----|*-----|----|---5-|----*|-----| 8:----------------5-|
+----+--0-2-+----+-0---+-----+-0-2-+---------------------+
+e e e e s s e e e s s e e e e e e e e e e e e e e e
+----------------------+-------------------+-----------------+
|4:------R---------R---|-------------------|-----------------|
|4:----5---5-4-4-5---5-|-4-4-5-4-5-4-------|-----------------|
+----------------------+-------------7-5-0-+-2-2-0-2-2-2-0-2-+
e s s e s s e e e e +e e e e s s e e e e e e e e e e e e e e e e e e e
+---2-2-2-4-6-7-------+--------------------+-----------------+-----------------+
|---------------7-----|------R-------------|---4-------------|-----------------|
|-----------------7-5-|----5---5-4-4-5-4-5-|-7---7-5-4-------|-----------------|
+-2-------------------+--------------------+-----------7-5-0-+-2-2-0-2-2-2-0-2-+
e s s e s s e e e e +e e e e e e e e +e e e e e e e e
+---13-13-14-13-13-9---11-7-+----7-------------+------------------+
|--------------------9------|------7---R---R---|----------R---R---|
|---------------------------|--------5---5---5-|----7-5-4---------|
+-2-------------------------+------------------+------------7---0-+
e e e e e e e e e s s s s s s e e e e +e e e q e e e
+-----------------+-----------------------+----------------+
|-----------------|---6-6-7-7-6-7-4-5-4---|------R-----R---|
|-----------------|---------------------5-|----5---5-5---5-|
+-2-2-0-2-2-2-0-2-+-2---------------------+----------------+
+e e e e s s e e e +e e e q e e e +e e e q e e e e e e q e e e
+--------------------+----------------+----------------+---------------+
|------------------4-|----4-R---------|----------------|---------------|
|----5-4-5-4-4-------|--------7-7---6-|----6-6-7-7---7-|-9-9---7---7-6-|
+--------------7-5---+------------7---+------------7---+-----9---7-----+
+e e e e e e e e e e e e e e e e e e q e e e e e e e e e e e e
+------------6-7-9-+-----------------------4-+---------------------4---+
|--------7-9-------|6:-7-7---7-5-5-5-7-------|-7-7---7-5-5-7-7-------5-|
|----7-9-----------|4:-----7-----------5-5---|-----7-----------5-5-----|
+------------------+-------------------------+-------------------------+
e e e e e e e e e e e e e e e e e e e e e e e e e e q e e q e e e e
+---------------------4---+-------------------------+-----9-----7---------+
|-7-7---7-5-5-7-7-------5-|-7-7---7-5-5-7-7---------|-----------------4---|
|-----7-----------5-5-----|-----7-------------4-5-6-|-7-7---5-5---------5-|
+-------------------------+-----------------5-------+-------------5-5-----+
e e e e e e e e e e e e s s e e e e e e e e e e e e e e e s s e e e
+-----9---7---9-----+-9---7-------------+---9---7---9-----+-9---7---7-7-------+
|4:-----R---R-------|---R---R-5H6-------|-----R---R-------|---9---9-----9-7---|
|4:-7-----------5-7-|-------------7-5-7-|-7-----------5-7-|-----------------5-|
+-------------------+-------------------+-----------------+-------------------+
e e e e e e e e e e e e s s e e e e e e e e e e e e e e e e e e e
+---9---7---9-----+-9---7-------------+---9---7---9-----+-9-7-6-----------+
|-----R---R-------|---9---9-5H6-------|-----R---R-------|-------9-8-7-5---|
|-7-----------5-7-|-------------7-5-7-|-7-----------5-7-|-----------------|
+-----------------+-------------------+-----------------+---------------5-+
e e e e e e e e e e e e s s e e e e e e e e e e e e e e e e e e e
+-----------------+-------------------+-----------------+-----------------+
|---9---7---9-----|-----7-------------|---9-R-7-R-9-----|-9---7---6-7-6---|
|-----------------|-7-9---9-5H6-------|-----------------|---9---9---------|
+-7---7---7---5-7-+-------------7-5-7-+-7-----------5-7-+---------------7-+
e e e e e e e e 3 h h w +w +w +w 3 w+h w s s s s s s s s
+-------------------+-----+----+----+----+-----+-------+-------------------+
|*-----------------*|-----|*---|----|----|----*|6:-R---|-R-7-7-7-7-7-7-7-7-|
|*-----------------*|-----|*---|----|----|----*|4:-----|-------------------|
+--7-7-7-7-7-7-7-7--+-7-7-+--7-+----+----+-----+-------+-------------------+
repeat and fade
s s s s q e e q e e e e e e q e e q e e e e
+---------------7---------+------------7----------+
|-7-7-7-7-------------4---|*-----------------4---*|
|-----------5-5---------5-|*-7-7---5-5---------5-*|
+---------0-------5-5-----+------0-------5-6------+
==========================================================================
Created using the Bass Tab Creator
__ by Mario D'Alessio (motcid!marble!dalessio)
+|oo|+ modified by Erik Habbinga ([email protected])
+|oo|+ Notes: w = Whole h = Half q = Quarter
|| e = 8th s = 16th t = 32nd x = 64th
||
|| Capital durations are dotted notes
|| (equal to 1.5 times the duration value)
||
|| #
|| +----+ +----+
_ || _ |*--*+ = MEASURE |4:--| = TIME
_||_// |*--*+ REPEATS |4:--| SIGNATURES
| [] | +----+ (#=Num Repeats) +----+
| || |
/ [] + = TIE ^ = TRIPLET > = BEND
______/ H = HAMMER ON = SLIDE TO FRET R = Rest
P = PULL OFF X = SLIDE TO NOWHERE ~ = Trill




Ваше мнение



Капча