Rush: Test for Echo
>From the album Test for Echo (Atlantic Records)
Copyright 1996 Core Music Publishing
Music by Lee and Lifeson
Lyrics by Peart and Dubois
Comments/corrections to Sean Jones
Transcribed by Steve Gorenberg, Don Dianetti, and Sean Jones
w w w q e Q e e H+e e H+e e w q e Q e e H+e e H+e e
+-----+---+---+-----------+-------+-------+---+-----------+-------+-------+
|4:-R-|-R-|-R-|---R---R---|-------|-------|---|---R---R---|-------|-----3-|
|4:---|---|---|-----------|-5---3|-1---1-|-3-|-----------|-5---8|-1-----|
+-----+---+---+-3---4---3-+-------+-------+---+-3---4---3-+-------+-------+
H+e e w H+e e w q e Q e e H+e e H+e e w q e e e s s e e
+-------+---+-------+---+-----------+-----7-+-----7-+----+-----------------+
|-------|---|-------|---|---R---R---|-------|-8-----|-10-|---R-------------|
|-3---3-|-5-|-1---1-|-3-|-----------|-5-----|-------|----|-----------------|
+-------+---+-------+---+-3---4---3-+-------+-------+----+-3---4-4-3-3-4-3-+
q H +h+e q s s q H +e e Q s s s s e e s s e e e e s s e
+------+-------------+-----+----10------------------+---------------------+
|----R-|-------------|---R-|----10-R----------------|-------3-----------3-|
|-5---|------178-7-|-5---|---------12-12-12-12-12|-5-5-5---5-3-5-5-3---|
+------+-------------+-----+------------------------+---------------------+
e e s s e e e e e e s s e e e e s s e e e s s e e e e e H+e e
+-------------------+---------------------+-----------------------+-----5-+
|---------3---------|-------3-----------3-|---------3-------------|-----5-|
|-5-3-3-5---0-0-3-0-|-5-5-5---5-3-5-5-3---|-5-3-3-5---(5)/7-7-7-7-|-5-----|
+-------------------+---------------------+-----------------------+-------+
+q e q e e q q e e e e +q e e e e e e q q e q e +q q q e e
+------------+-------------+----------------+---------5-+------------+
|------------|-------------|----------------|---------5-|------3-----|
|----5-5-3-3-|-1-1-1-1-1-1-|----1-1-0-0-0---|-5-5-5-5---|----5---5---|
+------------+-------------+--------------3-+-----------+----------3-+
q q e e e e +q q q e s s q q e e e e +q e e q e e q q e e e e
+-------------+--------------+-------------+--------------+-------------+
|---------R---|--------------|---------R---|--------3-----|-----R---R---|
|-1-1-1-1---1-|----0---------|-5-5-5-5---5-|----3-5---53-|-1-1---1---1-|
+-------------+------31-3/5-+-------------+--------------+-------------+
+e e e e e e s s e q e e e e e e +e e e e e s s e s s q q e e e e
+--------------------+---------------+----------------------+-------------+
|--------------------|-------R-------|--------R-------------|-----R---R---|
|----1-0H1-----------|-5-3H5---5-5-3-|----3-5---3-0-0-3-5P3|-1-1---1---1-|
+----------3-3-3H5P3-+---------------+----------------------+-------------+
+e e q e e e s s e s s e e e e s s e e e s s e e e e e
+------------------+---------------------+-----------------------+
|------------------|-------3-----------3-|---------3-------------|
|----1-------------|-5-5-5---5-3-5-5-3---|-5-3-3-5---(5)/7-7-7-7-|
+------53-3-1-1-3-+---------------------+-----------------------+
e s s e e e e s s e e e s s e e e e e e s s e e e e s s e
+---------------------+-------------------+---------------------+
|-------3-----------3-|---------3---------|-------3-----------3-|
|-5-5-5---5-3-5-5-3---|-5-3-3-5---0-0-3-0-|-5-5-5---5-3-5-5-3---|
+---------------------+-------------------+---------------------+
e e s s e e e e e e s s e e e e s s e e e s s e e e e e
+-----------------------+---------------------+-------------------+
|---------3-------------|-------3-----------3-|---------3---------|
|-5-3-3-5---(5)/7-7-8-7-|-5-5-5---5-3-5-5-3---|-5-3-3-5---0-0-3-0-|
+-----------------------+---------------------+-------------------+
e e e e e e e e 3 e e e e e e e e e e e e e e 3 e e e e w
+-------------------+----------------+----------------------+-----------+-----+
|*-----------------*|-3:-------------|*-4:-----------------*|2:---------|4:-1-|
|*-5---------------*|-4:-5-----------|*-4:-5---------------*|4:-5-------|4:---|
+----1-2-3-4-5-4-3--+------1-2-3-4-3-+-------1-2-3-4-5-4-3--+-----1-2-3-+-----+
Q e e e e e +q q e e e e q e e e e e e +q q Q s s Q e e e e e
+-------------+--------------+---------------+------------+-------------+
|---------R-3-|--------------|-------R---R---|------------|---------R-3-|
|-5-5-3-5-----|----5-3-0-3H5|-1-1-1---1---1-|------------|-5-5-3H5-----|
+-------------+--------------+---------------+----3-1-3/5-+-------------+
+q e e e e e e Q e e e e e +q q e e e s s q q e e e e +q E s q e e
+----------------+-------------+----------------+-------------+--------------+
|----------------|-----R---R---|--------R-------|---------R---|--------------|
|----5---3---3/5-|-1-1---1---1-|----------------|-5-5-3-5---3-|----5-5-5-3H5|
+------1---1-----+-------------+----3-1---1-3/5-+-------------+--------------+
q e e e e e e +e e q q q E s e e e e e e +e e e e e e e e
+---------------+-------------+-----------------+------------------+
|---3-------R---|-------------|-----3-----------|----------3-------|
|-1---1-1-1-----|-------------|-5-5---5-3-5-5-3-|----3-5-5---0-3H5|
+-------------5-+----P3-1-3-5-+-----------------+------------------+
q e e e e e e +e e e e q e s s E s e e e e e e +s s e e e s s s s e e
+---------------+------------------+-----------------+------------------------+
|---3-------R---|------3-----------|-----3-------R---|--------3---------------|
|-1---1-1-1---1-|----1---1---------|-5-5---5-5-3---5-|----5-5---5-5H6P5P3-5---|
+---------------+----------3-1-3/5-+-----------------+----------------------3-+
e e e e e e s s e +e e e e q e e e s s e e e e s s e
+-------------------+----------------+----------------------+
|-----3-------R-----|------3---------|*-------3-----------3-|
|-1-1---1-1-1---1-1-|----1---1-------|*-5-5-5---5-3-5-5-3---|
+-------------------+----------3-13-+----------------------+
e e s s e e e e e e s s e e e e s s e e e s s e e e e e 2 w H+e e
+----------------------+---------------------+--------------------+---+-------+
|---------3------------|-------3-----------3-|---------3---------*|---|-------|
|-5-3-3-5--(5)/7-7-7-7-|-5-5-5---5-3-5-5-3---|-5-3-3-5---0-0-3-0-*|-5|-1---1-|
+----------------------+---------------------+--------------------+---+-------+
w q e Q e e H+e e H+e e H+e e h+e e e e h+e e e e H+e e
+---+-----------+-------+-------+-------+-----------+-----------+-------+
|---|---R---R---|-------|-------|-------|-----3P2---|-----3---3-|-------|
|-3-|-----------|-5---5|-1---1-|-3---3-|-5-------5|-1-----1---|-3---3-|
+---+-3---4---3-+-------+-------+-------+-----------+-----------+-------+
q e Q e e h Q e H+e e h+e Q Q e e e e s s q H h+e s s s s s s
+-----------+-----7-+-----7-+------7+---------------+-----+-------5---------+
|---R---R---|-------|-8-----|-10-----|-----R---------|---R-|-R---7---7-5-----|
|-----------|-5-5---|-------|--------|---------------|-5---|-------------8-7-|
+-3---4---3-+-------+-------+--------+-3H4---3-4-3-3-+-----+-----------------+
q H +e e s s e e Q s s s s e e e e s s e e e s s e s s s s e e
+-----+----10------10-10---+-----------------------+-----------------------+
|---R-|----10-R-10-10-10-R-|---------3-----------3-|---------3-------------|
|-5---|--------------------|-5-5-5-5---5-3-5-5-5---|-5-3-5-5---0-0-0-0-3-0-|
+-----+--------------------+-----------------------+-----------------------+
s s s s e e e e s s e e e s s e s s s s s s s s s s s s e e e e s s e
+-----------------------+---------------------------+-----------------------+
|---------3-----------3-|---------3-----------------|---------3-----------3-|
|-1-1-1-1---5-3-5-5-5---|-5-3-5-5---5/7-7-7-5H7-75-|-5-5-5-5---5-3-5-5-5---|
+-----------------------+---------------------------+-----------------------+
e e s s e s s s s e e s s s s e e e e s s e e e s s e s s s s s s e
+-----------------------+-----------------------+-------------------------+
|---------3-------------|---------3-----------3-|---------3---------------|
|-5-3-5-5---0-0-0-0-3-0-|-1-1-1-1---5-3-5-5-5---|-5-3-5-5---5/7-7-7-5H7-7|
+-----------------------+-----------------------+-------------------------+
H+e e +q e e e e e e q e e e e e e +q q q e e q e e e e s s e
+-------+----------------+---------------+------------+-----------------+
|-----3-|----------------|-------R---R---|------------|---3---R---R-----|
|-5-----|----5---3---3/5|-1-1-1---1---1-|------------|-5---5---3---3-5-|
+-------+------1---1-----+---------------+----3-1-3/5-+-----------------+
+e e e e e e e e q e q e e e +e e q q e e e s s e e e e s s e
+------------------+-------------+--------------+---------------------+
|------R---3-------|-----R---R---|--------------|-------3---R---R-----|
|----5---5---5-3H5|-1-1---1---1-|----1---------|-5-5-5---5---5---5-5-|
+------------------+-------------+------3-1-3/5-+---------------------+
+e e e e E s s s e E s e e e e e e +q e e e s s e e
+--------------------+-----------------+------------------+
|------3-------------|---------3-5-R-7-|----5-R-3-R---3-5-|
|----5---5-7-7-5H7P5|-1-1-1-1---------|------------5-----|
+--------------------+-----------------+------------------+
e s s e e e e s s e +e e e s s e s s e e e s s e s s e e r e
+---------------------+----------------------+---------------------+
|-------3---R---R-----|--------R-----R-------|-----------------R---|
|-5-5-5---5---3---3/7-|----7-5---5-3---3-3-5|-1-1-1-1-1-1-1-1---1-|
+---------------------+----------------------+---------------------+
+e e e e e e e e e e e e e e e e 3 e e e e e e e e e e e e e e 3
+------------------+-------------------+---------------+---------------------+
|------------------|*-----------------*|3:-------------|4:*-----------------*|
|----1-0-0---------|*-5---------------*|4:-5-----------|4:*-5---------------*|
+----------3-1-3-5-+----1-2-3-4-5-4-3--+-----1-2-3-4-3-+------1-2-3-4-5-4-3--+
e e e e w +H H+e e +q q e e e e q e e e e e e
+-----------+-----+------+---------+--------------+---------------+
|2:---------|4:-1-|3:----|4:-------|--------R-----|-------R---R---|
|4:-5-------|4:---|4:----|4:-----3-|--------------|---------------|
+-----1-2-3-+-----+------+---5-----+----5-3---3-5-+-1-1-1---1---1-+
+q e e e e e e q e e e e e e +q q e e e e q e e e e e e
+----------------+---------------+--------------+---------------+
|----------------|-------R---R---|--------R-----|-------R---R---|
|----------------|-------------3-|--------------|---------------|
+----1-1-3-3-1-3/+-5-5-5---5-----+----5-3---3H5-+-1-1-1---1---1-+
+e e e e e e e e e s s e e e q e +e e e e e e e e q e e e e s s e
+------------------+-----------------+------------------+-----------------+
|------------------|-------------2---|------------------|-----------------|
|------3-----------|-------3-------5-|----5-3-2-3H5-----|-----------------|
+----1---1-3-3-1-3-+-5-5-5---5-5-----+--------------53-+-1-1-1-0-1-1-1-1-+
+e e e e e e e e q e e e e e e s s e e e E s e e q e e e e s s e
+------------------+---------------+-------------------+-----------------+
|------3-----3---3-|-----------R---|-------------------|-------3---------|
|------------------|-0-3-0---------|-----------2-2-2---|-----------------|
+----1---0-1---3---+-------3-5---5-+-5-5-5-3-5-------5+-1-1-1---1-1-1-1-+
+e e e e e e e e e s s e e e e s s e e e s s e e e e e
+------------------+---------------------+-----------------------+
|------------------|-------3-----------3-|---------3-------------|
|------------------|-5-5-5---5-3-5-5-3---|-5-3-3-5---(5)/7-7-7-7-|
+----1-0-1-3-1-3/5-+---------------------+-----------------------+
e s s e e e e s s e e e s s e e e e e 2 e s s e e e e s s e
+----------------------+--------------------+---------------------+
|*-------3-----------3-|---------3---------*|-------3-----------3-|
|*-5-5-5---5-3-5-5-3---|-5-3-3-5---0-0-3-0-*|-5-5-5---5-3-5-5-3---|
+----------------------+--------------------+---------------------+
e e s s e e e e e H+e e H+e e h+e e e e q e e e e e e H+e e
+-----------------------+-------+-------+-----------+---------------+-------+
|---------3-------------|-------|-------|-----------|---R---R---R---|-------|
|-5-3-3-5---(5)/7-7-7-7-|-5---3|-1---1H|-3---3H5P3-|---------------|-5---5|
+-----------------------+-------+-------+-----------+-3---4---4---3-+-------+
h+e q e Q q e e e h e e e e h+e e e e Q Q q q e q e e e
+---------+-----------+-----------+-----------+-------+-------------+
|---------|-----------|---R-3P2---|-----------|-------|---R-----R---|
|-1---1-1-|-3-5-5-3-0-|-5-------5|-1---1P0-1-|-3-5-3-|-------------|
+---------+-----------+-----------+-----------+-------+-3---4-4---3-+
Q e s s e e e Q e s s e e e Q e e e e e h+e e e e h+e e e e Q Q q
+---------------+---------------+-------------+---------7-+-----7---7-+-5-7-5-+
|-----3-3-------|-----3-3---3-5-|-------------|-----------|-8-----8---|-5-----|
|-5-5-----5-3H5|-1-1-----1-1/3-|-3-3-5-5/7-7-|-5---5-5---|-8---------|-------|
+---------------+---------------+-------------+-----------+-----------+-------+
e e e e e e e e q e e s s e s s e q e e s s e e e e e s s e s s e e e
+---3P2-----------+-------------------+-----------------+---------------------+
|-5-----5-6-5-3-5-|-------R-----------|-3-----R---------|-----R---------------|
|-----------------|-5-5-5---5-5-5-5-5-|-1-1-1---1-1-0-1-|-3-3---3-3-3-3-3-5-3-|
+-----------------+-------------------+-----------------+---------------------+
e e e e e e e e q H h+e e s s e q H e s e s s s s s e e
+-----------------+-----+-----10------10-+-----+-10---10---10---10-10-12-10-+
|-----------------|---R-|-R---10-R-10-10-|---R-|-10---10--------------------|
|-----------------|-5---|----------------|-5---|----8----8----8-------------|
+-3-3-3-3H5-5-3-1-+-----+----------------+-----+----------------------------+
q H h+e Q q H
+-----+--------+-----+
|---R-|-R---15|---R-|
|-5---|--------|-5---|
+-----+--------+-----+
==========================================================================
Created using the Bass Tab Creator
__ by Mario D'Alessio (motcid!marble!dalessio)
+|oo|+
+|oo|+ Notes: w = Whole h = Half q = Quarter
|| e = 8th s = 16th t = 32nd x = 64th
||
|| Capital durations are dotted notes
|| (equal to 1.5 times the duration value)
||
|| #
|| +----+ +----+
_ || _ |*--*+ = MEASURE |4:--| = TIME
_||_// |*--*+ REPEATS |4:--| SIGNATURES
| [] | +----+ (#=Num Repeats) +----+
| || |
/ [] + = TIE ^ = TRIPLET > = BEND
______/ H = HAMMER ON = SLIDE TO FRET R = Rest
P = PULL OFF X = SLIDE TO NOWHERE ~ = Trill
==========================================================================




Ваше мнение



Капча