Rush: Take a Friend
>From the album (Mercury Records)
Copyright 1974 Core Music Publishing
Music by Lee and Lifeson
Lyrics by Lee and Lifeson
Comments/corrections to Sean Jones
Transcribed by Sean Jones
Last updated 30 Aug 1998
e e e e e e e e e e e e e s s e e s s e e s s e e s s e e s s
||----------r-----r-----r--------||---------------------------------|---------
||*-12:-----e-----e-----e-------*||---------------------------------|---------
||*-8-:-5-5-s-4-4-s-3-3-s---2-5-*||-5-5-5-5-4-4-4-4-3-3-3-3---2-2-5-|-5-5-5---
||----------t-----t-----t-3------||-------------------------3-------|---------
e e s s e e s s e e e e e e e e e e e e e e e e 6x q H w H e e
------------------------||---------------------------||------r-|-r-|-r--------
------------------------||*---4-7---------2-5-------*||-4:---e-|-e-|-e-7-7----
5-4-4-4-4-3-3-3-3---2-5/||*-5-------4-73-------2-5-*||-4:-5-s-|-s-|-s--------
------------------3-----||--------5-----------3------||------t-|-t-|-t--------
e e e e e e e e Q e e Q e e q e q e Q e e e e e e e q e q e
|-----------------||----------|--------------||-------------|-----------------
|-5-7-5-4---------||*---------|-------5-----*||-------------|-------5---------
|---------7-5-7---||*-5---5-5-|-----3---3-3-*||-5---5-5---5-|-----3---3-3-----
|---------------7-||----5-----|-3-5----------||---5-----5---|-3-5-------------
Q e e Q e e q e q e 3x h q e e q q q q+ q q e q e e e e e e e e
||----------|--------------||---------|---------|-----r-----|-----------------
||*---------|-------5-----*||-5---5-4-|-3-------|-----e-----|---------3---3---
||*-5---5-5-|-----3---3-3-*||---5-----|-----3-5-|---5-s-5-5-|-----3-5---5-----
||----5-----|-3-5----------||---------|---5-----|-----t-----|-3-5-------------
e h q e e q q q q+ q q e e e e e e q e e e e h q e e q q q q+ q
--|---------|---5-----|-------7-r-7-|-----5-7-5-----|---------|---------|-----
4-|-5---5-4-|-3-------|-----7---e---|-5-7-------5-4-|-5---5-4-|-3-------|-----
--|---5-----|-----3-5-|---5-----s---|---------------|---5-----|-----3-5-|-----
--|---------|---------|---------t---|---------------|---------|---5-----|-----
q e q e e e e e e e e e h q e e q q q q+ q q e q e e e e e e e e e
--r-----|-----------------|---------|---------|-----r-----|-------------------
--e-----|---------3---3-4-|-3---3-4-|-5---5-7-|---7-e-7---|-7-7-7-5-----5-7---
5-s-5-5-|-----3-5---5-----|---3-----|---5-----|-----s---7-|---------7-7-------
--t-----|-3-5-------------|---------|---------|-----t-----|-------------------
q H H q Q e e q e e e q e q e 7x Q e e q e e e q e e e e h
|---r-|-r---||------------|--------------||-----------|---------------||------
|-7-e-|-e-7||*-----------|-------5-----*||-----------|-------5-------||-5----
|---s-|-s---||*-5---5-5-5-|-----3---3-3-*||-5---5-5-5-|-----3---3-3-3-||------
|---t-|-t---||----5-------|-3-5----------||---5-------|-3-5-----------||------
q e e q q q q+ q q e q e e e e e e e e e h q e e q q q q+ q q e q
------|---------|-----r-----|-----------------|---------|---5-----|-----r-----
--5-4-|-3-------|-----e-----|---------3---3-4-|-5---5-4-|-3-------|-----e-----
5-----|-----3-5-|---5-s-5-5-|-----3-5---5-----|---5-----|-----3-5-|---5-s-5---
------|---5-----|-----t-----|-3-5-------------|---------|---------|-----t-----
e e e e e e e e e h q e e q q q q+ q q e q e e e e e e e e e h q
--|-----------------|---------|---5-5---|-----r-----|-----------------|-------
--|---------3---3-4-|-5---5-4-|-3-------|-----e-----|---------3---3-4-|-3-----
5-|-----3-5---3-----|---5-----|-------5-|---5-s-5-5-|-----3-5---5-----|---3---
--|-3-5-------------|---------|---------|-----t-----|-3-5-------------|-------
e e q q q q+ q q e q e e e e e e e e e q H w Q e e q e e e q
----|---------|-----r-----|-----------------|---r-|-r-||------------|---------
3-4-|-5---5-7-|---7-e-7---|-7-7---------5-6-|-7-e-|-e-||*-----------|---------
----|---5-----|-----s---7-|-----5-6-7-7-----|---s-|-s-||*-5---5-5-5-|-----3---
----|---------|-----t-----|-----------------|---t-|-t-||----5-------|-3-5-----
e q e 7x Q e e q e e e q e e q h q e e q q q q+ q q e q e e e q
-------||-----------|-------------||----------|---------|-----r-----|---------
5-----*||-----------|-------3-----||*-5---5-4-|-3-------|-----e-----|---------
--3-3-*||-5---5-5-5-|-----3---3-3-||*---5-----|-----3-5-|---5-s-5-5-|-----3---
-------||---5-------|-3-5---------||----------|---5-----|-----t-----|-3-5-----
e e q 3x h q e e q q q q+ q q Q e e e e e e e e e q H H q Q e
-------||---------|---------|---------|-----------------|---r-|-r---||--------
3-----*||-3---5-5-|-5---5-7-|---7-7-7-|-7-7-7-7-7-7-7-7-|-7-e-|-e-7||*-------
--5-5-*||---3-----|---5-----|---------|-----------------|---s-|-s---||*-5-----
-------||---------|---------|---------|-----------------|---t-|-t---||----5---
e q e e e q e q e 8x h q e e q q q q+ q q e q e e e q e e q h q e
------|--------------||---------|---------|-----r-----|-------------|---------
------|-------5-----*||-5---5-4-|-3-------|-----e-----|-------3-----|-5---5---
5-5-5-|-----3---3-3-*||---5-----|-----3-5-|---5-s-5-5-|-----3---3-3-|---5-----
------|-3-5----------||---------|---5-----|-----t-----|-3-5---------|---------
e q q q q+ q q e q e e e q e e q h q e e q q q q+ q q e q e e q
--|---------|-----r-----|-------------|---------|---------|-----------|-------
4-|-3-------|-----e-----|-------3-----|-5---5-4-|-3-------|-----7-----|-------
--|-----3-5-|---5-s-5-5-|-----3---3-3-|---5-----|-----3-5-|---5---5-5-|-------
--|---5-----|-----t-----|-3-5---------|---------|---5-----|-----------|-3-5---
q e e e h q e e q q q q+ q q e q e e e e e e e e e q H w h q
--------|---------|---------|-----r-----|-----------------|---r-|-r-||--------
--------|-3---3-4-|-5---5-7-|---7-e-7-7-|-7-7---------5-6-|-7-e-|-e-||-5------
1-2-3-5-|---3-----|---5-----|-----s-----|-----5-6-7-7-----|---s-|-s-||---5----
--------|---------|---------|-----t-----|-----------------|---t-|-t-||--------
e e q q q q+ q q e q e e e e e e e e e h q e e q q q q+ q q e q e
----|---5-----|-----r-----|-----------------|---------|---------|-----r-------
5-4-|-3-------|-----e-----|---------3---3-4-|-5---5-4-|-3-------|-----e-------
----|-----3-5-|---5-s-5-5-|-----3-5---5-----|---5-----|-----3-5-|---5-s-5-5---
----|---------|-----t-----|-3-5-------------|---------|---3-----|-----t-------
e e e e e e e e h q e e q q q q+ q q e q e e e e e e e e e h q e
|-----------------|---------|---5-----|-----r-----|-----------------|---------
|---------3---3-4-|-5---5-4-|-3-------|-----e-----|---------3---3-4-|-3---3---
|-----3-5---5-----|---5-----|-----3-5-|---5-s-5-5-|-----3-5---5-----|---3-----
|-3-5-------------|---------|---------|-----t-----|-3-5-------------|---------
e q q q q+ q q e q e e e e e e e e e q H w e e e e e e e e q
--|---------|-----------|-----------------|---r-|-r-||------------------|-----
4-|-5---5-7-|---7---7---|-7-----------5-6-|-7-e-|-e-||*-5-5-5-5-----5-4-|-3---
--|---5-----|-----7---7-|---5-6-7-7-7-----|---s-|-s-||*---------5-5-----|-----
--|---------|-----------|-----------------|---t-|-t-||------------------|-----
q q q+ q q e e e e e e e e e e e e e e e e e e e e q q q q+ q q e
------|-----r-------|------------------||-----------------|---------|-----r---
------|-----e-------|---------------3-*||-5-5-5-5-----5-4-|-3-------|-----e---
--3-5-|---5-s-5-----|-----3-3-5-3-5---*||---------5-5-----|-----3-5-|---5-s---
5-----|-----t---3-3-|-5-5--------------||-----------------|---5-----|-----t---
e e e e q q q e h q e e q q q q+ e e q e q e e e e e e e e e q H
------|-----------|---------|---------|-------------|-----------------|---r---
------|-----------|-3---3-5-|-5---5-7-|-----7---7---|-7-----------5-6-|-7-e---
5-----|-----1-2-3-|---3-----|---5-----|---7---7---7-|---5-6-7-7-7-----|---s---
--3-3-|-3-5-------|---------|---------|-------------|-----------------|---t---
e q q e q q H
|-----------|---r-||----------------------------------------------------------
|-7-5-3-----|---e-||----------------------------------------------------------
|---------3-|-5-s-||----------------------------------------------------------
|-------5---|---t-||----------------------------------------------------------

==============================================================================
== TABLATURE EXPLANATION ==
==============================================================================
---------- ---------- ----t---
----5h8--- Hammeron ----(8)--- Ghost ----6--- Tap
---------- ---------- Note --------
----5p8--- Pulloff ---------- --------
---------- ---------- -----p--
----5/8--- Slide Up -----x---- Dead -----7-- Pop
---------- ---------- Note --s-----
----58--- Slide Down ---------- --5----- Slap
---------- ||------|| Repeat --------
----5~~~-- Vibrato ||*----*|| ---5^--- Bend
---------- ||*----*|| --------
---------- ||------|| --------
---------- ---------- --------
-4:------- Time ---------- --------
-4:------- Signature ---------- --------
---------- ---------- --------
Rhythm:
w = whole note W = dotted whole
h = half note H = dotted half
q = quarter note Q = dotted quarter
e = eighth note E = dotted eighth
s = sixteenth note S = dotted sixteenth
t = 32nd note T = dotted 32nd
x = 64th note X = dotted 64th
^ = triplet
==============================================================================
== Created with a demo version of BUCKET O' TAB ==
== tablature creation software for Windows ==
== For more info email [email protected] ==
==============================================================================




Ваше мнение



Капча