Superconductor By: Rush
================================
h e e q e q e e e q q e e q e q e e e q q e e q e q e e e q q
+-----+-----------------------+---------------------+---------------------+
|2:-R-|7:-------R-------------|-------R-------------|-------R-------------|
|4:---|4:---------------------|---------------------|---------------------|
+-----+---5-5-3---5-3-5-5-3-0-+-5-5-3---5-3-5-5-3-0-+-5-5-3---5-3-5-5-3-0-+
e e q e q e e e q q e e q e q e e e q q e e q e q e e e q q
+---------------------+---------------------+---------------------+
|-------R-----------2-|-------R-------------|-------R-----------2-|
|---------------------|---------------------|---------------------|
+-5-5-3---5-3-5-5-3---+-5-5-3---5-3-5-5-3-0-+-5-5-3---5-3-5-5-3---+
e e q e q e e e e e q e e q e q e e e q q e e q e q e e e e e q
+-----------------------+---------------------+-----------------------+
|-------R---------------|-------R-----------3-|-------R---------------|
|-----------------------|-3-3-1---3-1-3-3-1---|-3-3-1---3-1-3-3-1-0---|
+-5-5-3---5-3-5-5-3-2-0-+---------------------+---------------------3-+
e e q e q e e e q q e e q e q e e e e e q e e q e q e e e e e q
+---------------------+-----------------------+-----------------------+
|-------R-----------3-|-------R---------------|-------R---------------|
|-3-3-1---3-1-3-3-1---|-3-3-1---3-1-3-3-1-0---|-3-3-1---3-1-3-3-1-0---|
+---------------------+---------------------3-+---------------------3-+
e e e e e e e e e e e e e e e e e e e e e e e e e e e e e e e e
+-------------------+-----------------+-----------------+-----------------+
|4:-----------------|-----------------|-----------------|-----------------|
|4:-----------------|-----------------|-----------------|-3-3-3-3-3-3-3-3-|
+---6-6-6-6-6-6-6-6-+-6-6-6-6-6-6-6-6-+-4-4-4-4-4-4-4-4-+-----------------+
e e e e e e e e e e e e e e e e e e e e e e e e e e e e e e e e
+-----------------+-----------------+-----------------+-----------------+
|-----------------|-----------------|-5-5-5-5-5-5-5-5-|-6-6-6-6-6-5-3---|
|-6-6-6-6-6-6-6-6-|-6-6-6-6-6-6-6-6-|-----------------|---------------6-|
+-----------------+-----------------+-----------------+-----------------+
e e e e e e e e e e e e e e e e e e e e e e e e e e e e e e e e
+-----5-----------+-----------------+-----------------+-----------------+
|-----------------|-----------------|-----------------|-----------------|
|-3-3---3-3-3-3-3-|-3-3-3-3-3-3-3-3-|-----------------|-------------1-3-|
+-----------------+-----------------+-1-1-1-1-1-1-1-1-+-3-3-3-3-3-3-----+
e e e e e e e e e e e e e e e e e e e e e e e e e e e e e e e e
+-----5-5-5-------+-----------------+-----------------+-----------------+
|-----------------|-----------------|-----------------|-----------------|
|-3-3-------3-3-3-|-3-3-3-3-3-3-3-3-|-----------------|-------------1-3-|
+-----------------+-----------------+-1-1-1-1-1-1-1-1-+-3-3-3-3-3-3-----+
e e e e e e e e e e e e e e e e e e e e e e e e e e e e e e e e
+-----------------+-----------------+-----------------+-----------------+
|-----------------|-----------------|-----------------|-----------------|
|-3-3-3-3-3-3-3-3-|-3-3-3-3-3-3-3-3-|-----------------|-------------1-3-|
+-----------------+-----------------+-1-1-1-1-1-1-1-1-+-3-3-3-3-3-3-----+
e e e e e e e e e e e e e e e e e e e e e e e e e e e e e e e e
+-----------------+-----------------+-----------------+-----------------+
|-----------------|-----------------|-----------------|-----------------|
|-3-3-3-3-3-3-3-3-|-3-3-3-3-3-3-3-3-|-----------------|-------------1-3-|
+-----------------+-----------------+-1-1-1-1-1-1-1-1-+-3-3-3-3-3-3-----+
e e e e e e e e e e e e e e e e e e e e e e e e W
+-----------------+-----------------+-----------------+-----+
|-----------------|-----------------|-----------------|6:---|
|-3-3-3-3-3-3-3-3-|-3-3-1-1-1-3-3-3-|-----------------|4:---|
+-----------------+-----------------+-1-1-1-1-1-1-1-1-+---3-+
e e q e q e e e q q e e q e q e e e q q e e q e q e e e q q
+-----------------------+---------------------+---------------------+
|7:-------R-----------7-|-------R-------------|-------R-------------|
|4:-7-7-5---7-5-7-7-5---|---------------------|---------------------|
+-----------------------+-5-5-3---5-3-5-5-3-0-+-5-5-3---5-3-5-5-3-0-+
e e q e q e e e e e q e e q e q e e e q q e e q e q e e e e e q
+-----------------------+---------------------+-----------------------+
|-------R---------------|-------R-------------|-------R---------------|
|-----------------------|---------------------|-----------------------|
+-5-5-3---5-3-5-5-3-2-0-+-5-5-3---5-3-5-5-3-0-+-5-5-3---5-3-5-5-3-2-0-+
e e q e q e e e q q e e q e q e e e e e q e e q e q e e e q q
+---------------------+-----------------------+---------------------+
|-------R-----------5-|-------R---------------|-------R-----------5-|
|-3-3-1---3-1-3-3-1---|-3-3-1---3-1-3-3-1-0---|-3-3-1---3-1-3-3-1---|
+---------------------+---------------------3-+---------------------+
e e q e q e e e e e q e e q e q e e e q q e e e e e e e e
+-----------------------+---------------------+-------------------+
|-------R---------------|-------R-----------5-|4:-----------------|
|-3-3-1---3-1-3-3-1-0---|-3-3-1---3-1-3-3-1---|4:-----------------|
+---------------------3-+---------------------+---6-6-6-6-6-6-6-6-+
e e e e e e e e e e e e e e e e e e e e e e e e q q q q
+-----------------+-----------------+-----------------+---------+
|-----------------|-----------------|-----------------|---------|
|-----------------|-----------------|-3-3-3-3-3-3-3-3-|-6-6-6-6-|
+-6-6-6-6-6-6-6-6-+-4-4-4-4-4-4-4-4-+-----------------+---------+
e e e e e e e e q e e q q q e e e e q e e e e e q e e e e e e e e e
+-----------------+-----------+-------------+---------------+-----------------+
|-----------------|-5-5-5-5-5-|-6-6-5-6-8-6-|---------------|-----------------|
|-6-6-6-6-6-6-6-6-|-----------|-------------|-3-3-3-3-3-3-3-|-3-3-3-3-3-3-3-3-|
+-----------------+-----------+-------------+---------------+-----------------+
q Q e e e e e e e e e e e e e e q e e e e e e e e e e e q q e e e e
+-----------+-----------------+---------------+-----------------+-------------+
|-----------|-----------------|---------------|-----------------|-------------|
|-----------|-------------1-3-|-3-3-3-3-3-3-3-|-3-3-3-3-3-3-3-3-|-------------|
+-1-1-1-1-1-+-3-3-3-3-3-3-----+---------------+-----------------+-1-1-1-1-1-1-+
e e e e e e e e +e e e e e e e e e e e e e e e e e e e e e e e e
+-----------------+------------------+-----------------+-----------------+
|-----------------|------------------|-----------------|-----------------|
|-------------1-3-|----3-3-3-3-3-3-3-|-3-3-3-3-3-3-3-3-|-----------------|
+-3-3-3-3-3-3-----+------------------+-----------------+-1-1-1-1-1-1-1-1-+
e e e e e e e e +e e e e e e e e e e e e e e e e e e e e e e e e
+-----------------+------------------+-----------------+-----------------+
|-----------------|------------------|-----------------|-----------------|
|-------------1-3-|----3-3-3-3-3-3-3-|-3-3-1-1-1-3-3-3-|-----------------|
+-3-3-3-3-3-3-----+------------------+-----------------+-1-1-1-1-1-1-1-1-+
q e e e e e e Q e e e q e e e e e e e e Q e e e e e e e e e e e q
+---------------+-----------+-----------------+-------------+---------------+
|---------------|-----------|-----R-----------|-------------|-------------4-|
|---------------|-7-7-7-7-7-|-7-7---7-7-7-5-7-|-------------|-5-5-4-4-------|
+-3-3-3-3-3-3-3-+-----------+-----------------+-5-5-5-5-3-5-+---------7-7---+
Q e+h e q e e e e e e q e e e e e e e e e e e q e q e e e e e
+-------+---------------+---------------+---------------+---------------+
|-------|---------------|---------------|---------------|---------------|
|-7-7---|-7-7-7-7-7-5-7-|---------------|-5-5-4-4-------|-7-7-7-7-5-5-5-|
+-------+---------------+-5-5-5-5-5-3-5-+---------7-7-5-+---------------+
e q e e e e e e q e e e e e e e e e e e q e e q e q e e e q
+---------------+---------------+---------------+---------------------+
|---------------|---------------|-R-------------|6:-------R-----------|
|-7-7-7-7-7-5-7-|---------------|---5-4-4-------|4:-3-3-1---3-1-3-3-1-|
+---------------+-5-5-5-5-5-3-5-+---------7-7-5-+---------------------+
e e q e q e e e e e q e e e e e e e e e e e e e e e e
+-------------------------+-------------------+-----------------+
|7:-------R---------------|4:-----------------|-----------------|
|4:-----------------------|4:-----------------|-----------------|
+---5-5-3---5-3-5-5-3-2-0-+---6-6-6-6-6-6-6-6-+-6-6-6-6-6-6-6-6-+
e e e e e e e e e e e e e e e e q e e q q e e e e e e e e
+-----------------+-----------------+-----------+-----------------+
|-----------------|-----------------|-----------|-----------------|
|-----------------|-3-3-3-3-3-3-3-3-|-6-6-6-6-6-|-6-6-6-6-6-6-6-6-|
+-4-4-4-4-4-4-4-4-+-----------------+-----------+-----------------+
e e e e e e e e e e e e e e e e q e e e e e e e e e e e e e e
+-----------------+-----------------+---------------+-----------------+
|-5-5-5-5-5-5-5-5-|-6-6-6-5-6-5-3---|---------------|-----------------|
|-----------------|---------------6-|---------------|-----------------|
+-----------------+-----------------+-6-6-6-6-6-6-6-+-6-6-6-6-6-6-6-6-+
e e e q e e e e e e e e e e e e e e e e e q e e e q e e e
+---------------+-----------------+---------------+---------------+
|---------------|-----------------|---------------|---------------|
|---------------|-3-3-3-3-3-3-3-3-|-6-6-6-6-6-6-6-|-6-6-6-6-6-6-6-|
+-4-4-4-4-4-4-4-+-----------------+---------------+---------------+
q e e e e e e e e e e e e q e e e e e e e e e e e q e e e
+---------------+-----8----------+-----------------+---------------+
|-5-5-5-5-5-5-5-|-6-5---6-10-8-6-|-----------------|---------------|
|---------------|----------------|-3-3-3-3-3-3-3-3-|-3-3-3-3-3-3-3-|
+---------------+----------------+-----------------+---------------+
q q e e e e e e e e e e e e e e e e e e e e e e e e e e e e
+-------------+-----------------+-----------------+-----------------+
|-------------|-----------------|-----------------|-----------------|
|-------------|-------------1-3-|-3-3-3-3-3-3-3-3-|-3-3-3-3-3-3-3-3-|
+-1-1-1-1-1-1-+-3-3-3-3-3-3-----+-----------------+-----------------+
e e e q e e e e e e e e e e e e e Q e e e e e e e e e e e
+---------------+-----------------+-------------+-----------------+
|---------------|-----------------|-------------|-----------------|
|---------------|---------------1-|-3-3-3-3-3-3-|-3-3-3-3-3-3-3-3-|
+-1-1-1-1-1-1-1-+-3-3-3-1-3-1-3---+-------------+-----------------+
e e e e e e e e e e e e e e e e e e e e e e e e e e e e e e e e
+-----------------+-----------------+-----------------+-----------------+
|-----------------|-----------------|-----------------|-----------------|
|-----------------|-------------1-3-|-3-3-3-3-3-3-3-3-|-3-3-1-1-1-3-3-3-|
+-1-1-1-1-1-1-1-1-+-3-3-3-1-3-3-----+-----------------+-----------------+
e e e e e e e e e e e e e e e e q e e e e e e e q e e e e e
+-----------------+-----------------+---------------+---------------+
|-----------------|-----------------|---------------|---------------|
|-----------------|---------------3-|-5-5-5-5-5-5-5-|-5-5-5-5-5-5-5-|
+-1-1-1-1-1-1-1-1-+-3-1-3-1-3-1-3---+---------------+---------------+
e e e e e e e e e e e e e e e e e e e q e e e e q e e e e e
+-----------------+-----------------+---------------+---------------+
|-----------------|-----------------|---------------|---------------|
|-----------------|---------------3-|-5-5-5-5-5-5-5-|-5-5-5-5-5-5-5-|
+-3-3-3-3-3-3-3-3-+-5-5-3-3-2-2-3---+---------------+---------------+
e e e e e e e e e e e e e e e e e e Q q e e e e e e e e e
+-----------------+-----------------+-----------+-----------------+
|-----------------|-----------------|-----------|-----------------|
|-----------------|---------------3-|-5-5-5-5-5-|-5-5-5-5-5-5-3-5-|
+-3-3-3-3-3-3-3-3-+-5-5-5-3-5-3-5---+-----------+-----------------+
e e e e e e e e e e e e e e e e e e e e e e e e e e e e e e e e
+-----------------+-----------------+---7-----5-------+---7-----5---7---+
|-----------------|-----------------|-----------------|-----------------|
|-----------------|-------------3-5-|-5---3-3---3-3-5-|-5---3-3---3---5-|
+-3-3-3-3-3-3-3-3-+-5-5-5-3-5-5-----+-----------------+-----------------+
e e e e Q e +e e e e e e e e e e Q e e e e q q e e e e e e e e e e e
+-------------+------------------+-------------+-------------+-----------------+
|-------------|------------------|-------------|-------------|-----------------|
|-------------|--------------5-7-|-7-7-7-7-7-7-|-7-7-7-7-5-7-|-----------------|
+-3-3-3-3-3-5-+----3-5-3-5-3-----+-------------+-------------+-5-5-5-5-5-5-5-5-+
e e e e e e e e e e e e e e e e e e e e e e e e e e e e e e e e
+-----------------+-----------------+-----------------+-----------------+
|-----------------|-----------------|-----------------|-----------------|
|-----------------|-7-7-7-7-7-7-7-7-|-7-7-7-7-7-7-7---|-----------------|
+-7-7-5-5-4-4-5-7-+-----------------+---------------0-+-5-5-5-5-5-5-5-5-+
e e e e e e e e e e e e e e e e e e e e e e e e e e e e e e e e
+-----------------+-----------------+-----------------+-----------------+
|-----------------|-----------------|-----------------|-----------------|
|---------------5-|-7-7-7-7-7-7-7-7-|-7-7-5-5-5-7-7-7-|-----------------|
+-7-5-5-7-7-5-7---+-----------------+-----------------+-5-5-5-5-5-5-5-5-+
e e e e e e e e e e e e e e e e e e e e e e e e e e e e e e e e
+-----------------+-----------------+-----------------+-----------------+
|---------------5-|-----------------|-----------------|-----------------|
|-----------5-7---|-3-3-3-3-3-3-3-3-|-3-3-3-3-3-3-3-3-|-----------------|
+-7-5-7-5-7-------+-----------------+-----------------+-1-1-1-1-1-1-1-1-+
e e e e e e e e e e e e e e e e +e e e e e e e e e e e e e e e e
+-----------------+---5-----3-----5-+------3---3-------+-----------------+
|-----------------|-----------------|------------------|-R---------------|
|---------------3-|-3---1-1---1-3---|----1---1---1-1-3-|-----------------|
+-3-3-1-1-0-0-3---+-----------------+------------------+---1-1-1-1-1-1-1-+
e e e e e e e e e e e e e e e e e e e e e e e e e e e e e e e e
+-----------------+-----------------+-----------------+-----------------+
|-----------------|-----------------|-----------------|-----------------|
|-----------------|-3-3-3-3-3-3-3-3-|-3-3-3-3-3-3-3---|-----------------|
+-3-3-1-1-0-0-1-3-+-----------------+---------------0-+-1-1-1-1-1-1-1-1-+
e e e e e e e e e e e e e e e e +e e e e e e e e e e e e e e e e
+-----------------+---------------5-+------------------+-----------------+
|-----------------|-----------------|------------------|-----------------|
|-----------------|-3-3-3-3-3-3-3---|----3-5-5-7-7-5-3-|-----------------|
+-3-3-1-1-0-0-1-3-+-----------------+------------------+-1-1-1-1-1-1-1-1-+
e e e e e e e e w +w
+-----------------+---+----+
|-----------------|---|----|
|-----------------|-3-|----|
+-3-3-1-1-0-0-1-3-+---+----+
==========================================================================
Created using the Bass Tab Creator
__ by Mario D'Alessio (motcid!marble!dalessio)
+|oo|+
+|oo|+ Notes: w = Whole h = Half q = Quarter
|| e = 8th s = 16th t = 32nd x = 64th
||
|| Capital durations are dotted notes
|| (equal to 1.5 times the duration value)
||
|| #
|| +----+ +----+
_ || _ |*--*+ = MEASURE |4:--| = TIME
_||_// |*--*+ REPEATS |4:--| SIGNATURES
| [] | +----+ (#=Num Repeats) +----+
| || |
/ [] + = TIE ^ = TRIPLET > = BEND
______/ H = HAMMER ON = SLIDE TO FRET R = Rest
P = PULL OFF X = SLIDE TO NOWHERE ~ = Trill




Ваше мнение



Капча