Rush: Secret Touch
From the album Vapor Trails (Anthem Records)
Copyright 2002 Core Music Publishing
Music by Lee and Lifeson
Lyrics by Peart
Transcribed by Travis Lausch
This is only a partial tab
||----------------------------|------0---0---0----||
||----------------------------|----3---3---3---3--||
||----------------------------|-------------------||
||---------2----7p5p0-----0---|-------------------||
||-----2h5----5--------7------|-------------------||
||--0-------------------------|-------------------||
||----------------------------|------3---3---3----||
||----------------------------|----5---5---5---5--||
||----------------------------|-------------------||
||---------2----7p5p0-----0---|-------------------||
||-----2h5----5--------7------|-------------------||
||--0-------------------------|-------------------||
Pre Verse Riff A--------------------------|
||-----------------||-----------------||--------------||
||-----------------||-----------------||--------------||
||*---------------*||*6--6---6---6--6*||-6-6-6--6-6-6-||
||*2-2-2-2-2-2-2-2*||*x--x---x---x--x*||-x-x-x--x-x-x-||
||-----------------||-4--4---4---4--4-||-4-4-4--4-4-4-||
||-----------------||-----------------||--------------||
Verse Chords:
D5 G5 C7 (x-3-2-3-x-x)
E5 (2nd time)
Chorus
||---------------|------------|---------------|-----------------||
||---------------|------------|---------------|-----------------||
||-----------(4)-|------------|---------------|-----------------||
||--------(2)----|-7-------/9|-4-------5-4-0-|-2-2-2-2-2-2-2-2-||
||-----(2)-------|------------|---------------|-0-0-0-0-0-0-0-0-||
||-0-------------|------------|---------------|-0-0-0-0-0-0-0-0-||
Play Riff A after 2nd Chorus
Interlude
N.H-----------------------------| These are 18's and 17's
||-----------------|-----------------||-----------------||-------------------||
||-----------------|-----------------||-----------------||-1818181817171717--||
||*----------------|----------------*||*---------------*||-1717171717171717--||
||*----------------|----------------*||*---------------*||-------------------||
||-----------------|-----------------||-5-5-5-5-5-5-7---||-------------------||
||-5-5-5-5-5-5-5-5-|-5-5-5-5-5-5-4-3-||-3-3-3-3-3-3-3---||-------------------||
Interlude (cont.)/3rd Chorus
||--------------------------------------||
||--------------------------------------||
||--------------------------------------||
||--------------------------------------||
||--------------------------------------||
||-0-0-12-0-0-10-0-0-12-0-0-10-0-0-12-0-||
4th Chorus: same as the first two
Outro
Bass
||--------||-----------------||------------||
||--------||-----------------||------------||
||--------||*---------------*||------------||
||--------||*2-2-2-2-2-2-2-2*||------------||
||--------||-----------------||-x--x--x--x-||
||--------||-----------------||-x--x--x--x-||
Then an arpeggio that I can't figure out




Ваше мнение



Капча