Scars By: Rush
========================
q E e e s e e e e E e e s e e q E e e s e e e e E e e s e e q
+-----+-------------------+---------------+-----------------+---------------+
|1:-R-|4:---------------1-|---------------|-----------------|-------------1-|
|4:---|4:-----1-1-----1---|-----1-1-----3-|-----1-1-----1-3-|-----1-1-------|
+-----+---1-4-----1-4-----+-1-4-----1-4---+-1-4-----1-4-----+-1-4-----1-4---+
E e e s e e e e E e e s e e q E e e s e e e e E e e s e e q
+-----------------+---------------+-----------------+---------------+
|---------------1-|---------------|-----------------|-------------1-|
|-----1-1-----1---|-----1-1-----3-|-----1-1-----1-3-|-----1-1-------|
+-1-4-----1-4-----+-1-4-----1-4---+-1-4-----1-4-----+-1-4-----1-4---+
E e e s e e e e E e e s e e e e E e e s e e e e E e e s e e q
+-----------------+-----------------+-----------------+---------------+
|-----------------|-----------------|---------------1-|-------------1-|
|-----1-1-----1-3-|-----1-1-----1-3-|-----1-1-----1---|-----1-1-------|
+-1-4-----1-4-----+-1-4-----1-4-----+-1-4-----1-4-----+-1-4-----1-4---+
E e e s e e e e E e e s e e q E e e s e e e e E e e s e e q
+-----------------+---------------+-----------------+---------------+
|---------------1-|---------------|-----------------|-------------1-|
|-----1-1-----1---|-----1-1-----3-|-----1-1-----1-3-|-----1-1-------|
+-1-4-----1-4-----+-1-4-----1-4---+-1-4-----1-4-----+-1-4-----1-4---+
E e e s e e e e E e e s e e q E e e s e e e e E e e s e e q
+-----------------+---------------+-----------------+---------------+
|---------------1-|---------------|-----------------|-------------1-|
|-----1-1-----1---|-----1-1-----3-|-----1-1-----1-3-|-----1-1-------|
+-1-4-----1-4-----+-1-4-----1-4---+-1-4-----1-4-----+-1-4-----1-4---+
E e e s e e e e E e e s e e e e E e e s e e e e E e e s e e q
+-----------------+-----------------+-----------------+---------------+
|-----------------|-----------------|---------------1-|---------------|
|-----1-1-----1-3-|-----1-1-----1-3-|-----1-1-----1---|-----1-1-----3-|
+-1-4-----1-4-----+-1-4-----1-4-----+-1-4-----1-4-----+-1-4-----1-4---+
E e e s e e e e E e e s e e q E e e s e e e e E e e s e e q
+-----------------+---------------+-----------------+---------------+
|-----------------|-------------1-|---------------1-|---------------|
|-----1-1-----1-3-|-----1-1-------|-----1-1-----1---|-----1-1-----3-|
+-1-4-----1-4-----+-1-4-----1-4---+-1-4-----1-4-----+-1-4-----1-4---+
E e e s e e e e E e e s e e q E e e s e e e e E e e s e e e e
+-----------------+---------------+-----------------+-----------------+
|-----------------|-------------1-|-----------------|-----------------|
|-----1-1-----1-3-|-----1-1-------|-----1-1-----1-3-|-----1-1-----1-3-|
+-1-4-----1-4-----+-1-4-----1-4---+-1-4-----1-4-----+-1-4-----1-4-----+
E e e s e e e e E e e s e e q E e e s e e e e E e e s e e q
+-----------------+---------------+-----------------+---------------+
|---------------1-|-------------1-|---------------1-|---------------|
|-----1-1-----1---|-----1-1-------|-----1-1-----1---|-----1-1-----3-|
+-1-4-----1-4-----+-1-4-----1-4---+-1-4-----1-4-----+-1-4-----1-4---+
E e e s e e e e E e e s e e q E e e s e e e e E e e s e e q
+-----------------+---------------+-----------------+---------------+
|-----------------|-------------1-|---------------1-|---------------|
|-----1-1-----1-3-|-----1-1-------|-----1-1-----1---|-----1-1-----3-|
+-1-4-----1-4-----+-1-4-----1-4---+-1-4-----1-4-----+-1-4-----1-4---+
E e e s e e e e E e e s e e q E e e s e e e e E e e s e e q
+-----------------+---------------+-----------------+---------------+
|-----------------|-------------1-|---------------1-|---------------|
|-----1-1-----1-3-|-----1-1-------|-----1-1-----1---|-----1-1-----3-|
+-1-4-----1-4-----+-1-4-----1-4---+-1-4-----1-4-----+-1-4-----1-4---+
E e e s e e e e E e e s e e q E e e s e e e e E e e s e e q
+-----------------+---------------+-----------------+---------------+
|-----------------|-------------1-|---------------1-|---------------|
|-----1-1-----1-3-|-----1-1-------|-----1-1-----1---|-----1-1-----3-|
+-1-4-----1-4-----+-1-4-----1-4---+-1-4-----1-4-----+-1-4-----1-4---+
E e e s e e e e E e e s e e q E e e s e e e e E e e s e e e e
+-----------------+---------------+-----------------+-----------------+
|-----------------|-------------1-|-----------------|-----------------|
|-----1-1-----1-3-|-----1-1-------|-----1-1-----1-3-|-----1-1-----1-3-|
+-1-4-----1-4-----+-1-4-----1-4---+-1-4-----1-4-----+-1-4-----1-4-----+
E e e s e e e e E e e s e e q E e e s e e e e E e e s e e q
+-----------------+---------------+-----------------+---------------+
|---------------1-|---------------|-----------------|-------------1-|
|-----1-1-----1---|-----1-1-----3-|-----1-1-----1-3-|-----1-1-------|
+-1-4-----1-4-----+-1-4-----1-4---+-1-4-----1-4-----+-1-4-----1-4---+
E e e s e e e e E e e s e e q E e e s e e e e E e e s e e q
+-----------------+---------------+-----------------+---------------+
|---------------1-|---------------|-----------------|-------------1-|
|-----1-1-----1---|-----1-1-----3-|-----1-1-----1-3-|-----1-1-------|
+-1-4-----1-4-----+-1-4-----1-4---+-1-4-----1-4-----+-1-4-----1-4---+
E e e s e e e e E e e s e e e e E e e s e e q E e e s e e e e
+-----------------+-----------------+---------------+-----------------+
|-----------------|-----------------|-------------1-|---------------1-|
|-----1-1-----1-3-|-----1-1-----1-3-|-----1-1-------|-----1-1-----1---|
+-1-4-----1-4-----+-1-4-----1-4-----+-1-4-----1-4---+-1-4-----1-4-----+
E e e s e e q E e e s e e e e E e e s e e q E e e s e e e e
+---------------+-----------------+---------------+-----------------+
|---------------|-----------------|-------------1-|---------------1-|
|-----1-1-----3-|-----1-1-----1-3-|-----1-1-------|-----1-1-----1---|
+-1-4-----1-4---+-1-4-----1-4-----+-1-4-----1-4---+-1-4-----1-4-----+
E e e s e e q E e e s e e e e E e e s e e q E e e s e e e e
+---------------+-----------------+---------------+-----------------+
|---------------|-----------------|-------------1-|---------------1-|
|-----1-1-----3-|-----1-1-----1-3-|-----1-1-------|-----1-1-----1---|
+-1-4-----1-4---+-1-4-----1-4-----+-1-4-----1-4---+-1-4-----1-4-----+
E e e s e e q E e e s e e e e E e e s e e q E e e s e e e e
+---------------+-----------------+---------------+-----------------+
|---------------|-----------------|-------------1-|---------------1-|
|-----1-1-----3-|-----1-1-----1-3-|-----1-1-------|-----1-1-----1---|
+-1-4-----1-4---+-1-4-----1-4-----+-1-4-----1-4---+-1-4-----1-4-----+
E e e s e e q E e e s e e e e E e e s e e q E e e s e e e e
+---------------+-----------------+---------------+-----------------+
|---------------|-----------------|-------------1-|-----------------|
|-----1-1-----3-|-----1-1-----1-3-|-----1-1-------|-----1-1-----1-3-|
+-1-4-----1-4---+-1-4-----1-4-----+-1-4-----1-4---+-1-4-----1-4-----+
E e e s e e e e E e e s e e e e E e e s e e q E e e s e e e e
+-----------------+-----------------+---------------+-----------------+
|-----------------|---------------1-|---------------|-----------------|
|-----1-1-----1-3-|-----1-1-----1---|-----1-1-----3-|-----1-1-----1-3-|
+-1-4-----1-4-----+-1-4-----1-4-----+-1-4-----1-4---+-1-4-----1-4-----+
E e e s e e q E e e s e e e e E e e s e e q E e e s e e e e
+---------------+-----------------+---------------+-----------------+
|-------------1-|---------------1-|---------------|-----------------|
|-----1-1-------|-----1-1-----1---|-----1-1-----3-|-----1-1-----1-3-|
+-1-4-----1-4---+-1-4-----1-4-----+-1-4-----1-4---+-1-4-----1-4-----+
E e e s e e q E e e s e e e e E e e s e e e e E e e s h +w +w +w
+---------------+-----------------+-----------------+-----------+----+----+----+
|-------------1-|-----------------|-----------------|---------R-|----|----|----|
|-----1-1-------|-----1-1-----1-3-|-----1-1-----1-3-|-----1-1---|----|----|----|
+-1-4-----1-4---+-1-4-----1-4-----+-1-4-----1-4-----+-1-4-------+----+----+----+
+w +w +w +w +w +w E e e s e e e e E e e s e e q
+----+----+----+----+----+----+-----------------+---------------+
|----|----|----|----|----|----|---------------1-|---------------|
|----|----|----|----|----|----|-----1-1-----1---|-----1-1-----3-|
+----+----+----+----+----+----+-1-4-----1-4-----+-1-4-----1-4---+
E e e s e e e e E e e s e e q E e e s e e e e E e e s e e q
+-----------------+---------------+-----------------+---------------+
|-----------------|-------------1-|---------------1-|---------------|
|-----1-1-----1-3-|-----1-1-------|-----1-1-----1---|-----1-1-----3-|
+-1-4-----1-4-----+-1-4-----1-4---+-1-4-----1-4-----+-1-4-----1-4---+
E e e s e e e e E e e s e e q E e e s e e e e E e e s e e e e
+-----------------+---------------+-----------------+-----------------+
|-----------------|-------------1-|-----------------|-----------------|
|-----1-1-----1-3-|-----1-1-------|-----1-1-----1-3-|-----1-1-----1-3-|
+-1-4-----1-4-----+-1-4-----1-4---+-1-4-----1-4-----+-1-4-----1-4-----+
E e e s e e e e E e e s e e q E e e s e e e e E e e s e e q
+-----------------+---------------+-----------------+---------------+
|---------------1-|---------------|-----------------|-------------1-|
|-----1-1-----1---|-----1-1-----3-|-----1-1-----1-3-|-----1-1-------|
+-1-4-----1-4-----+-1-4-----1-4---+-1-4-----1-4-----+-1-4-----1-4---+
E e e s e e e e E e e s e e q E e e s e e e e E e e s e e q
+-----------------+---------------+-----------------+---------------+
|---------------1-|---------------|-----------------|-------------1-|
|-----1-1-----1---|-----1-1-----3-|-----1-1-----1-3-|-----1-1-------|
+-1-4-----1-4-----+-1-4-----1-4---+-1-4-----1-4-----+-1-4-----1-4---+
E e e s e e e e E e e s e e e e w w w w w w w w w
+-----------------+-----------------+---+---+---+---+---+---+---+---+---+
|-----------------|-----------------|-R-|-R-|-R-|-R-|-R-|-R-|-R-|-R-|-R-|
|-----1-1-----1-3-|-----1-1-----1-3-|---|---|---|---|---|---|---|---|---|
+-1-4-----1-4-----+-1-4-----1-4-----+---+---+---+---+---+---+---+---+---+
==========================================================================
Created using the Bass Tab Creator
__ by Mario D'Alessio (motcid!marble!dalessio)
+|oo|+
+|oo|+ Notes: w = Whole h = Half q = Quarter
|| e = 8th s = 16th t = 32nd x = 64th
||
|| Capital durations are dotted notes
|| (equal to 1.5 times the duration value)
||
|| #
|| +----+ +----+
_ || _ |*--*+ = MEASURE |4:--| = TIME
_||_// |*--*+ REPEATS |4:--| SIGNATURES
| [] | +----+ (#=Num Repeats) +----+
| || |
/ [] + = TIE ^ = TRIPLET > = BEND
______/ H = HAMMER ON = SLIDE TO FRET R = Rest
P = PULL OFF X = SLIDE TO NOWHERE ~ = Trill




Ваше мнение



Капча