From: [email protected] (Carmen J Pezzone)
Roll The Bones
by Rush
---2--2--2--2--2--0--0--0--------------------2--2--2--2--2--0--0--0--
---3--3--3--3--3--3--3--3--------------------3--3--3--3--3--3--3--3--
---2--2--2--2--2--2--2--2--------------------2--2--2--2--2--2--2--2--
---------------------------------------------------------------------
---------------------------------------------------------------------
---------------------------------------------------------------------
Vocals start here
---2--2--2--2--2--0--0--0-----------------3---------------------------
---3--3--3--3--3--3--3--3-----------------3---------------------------
---2--2--2--2--2--2--2--2-----------------2---------------------------
------------------------------------------2---------------------------
------------------------------------------0---------------------------
----------------------------------------------------------------------
---3---------------------------------------2--2--2--2--2--0--0--0---
---3---------------------------------------3--3--3--3--3--3--3--3---
---2---------------------------------------2--2--2--2--2--2--2--2---
---0----------------------------------------------------------------
---0----------------------------------------------------------------
--------------------------------------------------------------------
---2--2--2--2--2--0--0--0-----------------3------------------------
---3--3--3--3--3--3--3--3-----------------3------------------------
---2--2--2--2--2--2--2--2-----------------2------------------------
------------------------------------------2------------------------
------------------------------------------0------------------------
-------------------------------------------------------------------
---3------------------------------------2--2--2--2--2--0--0--0----
---3------------------------------------3--3--3--3--3--3--3--3----
---2------------------------------------2--2--2--2--2--2--2--2----
---0--------------------------------------------------------------
---0--------------------------------------------------------------
------------------------------------------------------------------
---2--2--2--2--2--0--0--0------
---3--3--3--3--3--3--3--3------
---2--2--2--2--2--2--2--2------
-------------------------------
-------------------------------
-------------------------------
Pre-Chorus
---8--8--8--8--8----8--8----8--8-------0--0--0--1--1----2----3--3--3--3--3/8--
---8--8--8--8--7----7--5----5--7-------3--3--3--3--3----3----3--3--3--3--3/8--
------------------------------------------------------------------------------
------------------------------------------------------------------------------
------------------------------------------------------------------------------
------------------------------------------------------------------------------
---8--8--8--8--8----8--8----8--8--------5--5--5--5--5---5--5--5--5--5--5/7--7--
---8--8--8--8--7----7--5----5--7--------6--6--6--6--6---6--6--6--6--6--6/8--8--
----------------------------------------5--5--5--5--5---5--5--5--5--5--5/7--7--
-------------------------------------------------------------------------------
-------------------------------------------------------------------------------
-------------------------------------------------------------------------------
repeat that 3X
Chorus
Em G5 C
Why are we here? Because were here. Roll the bones.
C
Roll the bones.
Em G5 C
Why does it happen? Because it happens. Roll the bones.
C
Roll the bones.
solo
-------------------------------------------------------------------
--17>(20)=====>(18)===>(17)--15-17\---12>13>14>13>12------12-------
------------------------------------------------------14------14\--
-------------------------------------------------------------------
-------------------------------------------------------------------
-------------------------------------------------------------------
|- w/ bar.---|
-------------------------------------------8>7>8\/8>7--7>8/10\/10/12--
-------7--8--10>8>7-----7---------------7-----------------------------
--7>9----------------9-----9>7-----7>9--------------------------------
--------------------------------9-------------------------------------
----------------------------------------------------------------------
----------------------------------------------------------------------
--12------12------12-----------------------12------12--15vvvvvv--
------10------10------10/12\---12--13--15------15----------------
-----------------------------------------------------------------
-----------------------------------------------------------------
-----------------------------------------------------------------
-----------------------------------------------------------------
|- n.h.
--15>(17)--15vvvvvv--12--15--15>(17)--15vvvvvv\---------
-------------------------------------------------"12"\--
--------------------------------------------------------
--------------------------------------------------------
--------------------------------------------------------
--------------------------------------------------------
during "rap";
-------------------------------22>(23)>(22)>(23)\-----------
--16\12-----------------------------------------------------
------------------------------------------------------------
------------------------------------------------------------
------------------------------------------------------------
------------------------------------------------------------
|-- harm.
-----------------------------------------12-------------------
----"5"vvvvvvvvvvvvvvvvvvvvv-----------------15>12-------12---
--------------------------------------------------------------
--------------------------------------------------------------
--------------------------------------------------------------
--------------------------------------------------------------
--12-----------------------------------
------15>0---15--12>15>12\11>(12)------
---------------------------------------
---------------------------------------
---------------------------------------
---------------------------------------
chorus break.
-------------12------12-----------15-----------12-----------12-----------
---12---15-------15------15>(17)------15>(17)------15>(17)------15>(17)--
-------------------------------------------------------------------------
-------------------------------------------------------------------------
-------------------------------------------------------------------------
-------------------------------------------------------------------------
---12-----------12-----------------------------------20--18---
-------15>(17)-------15>(17)>15vvv----------------------------
--------------------------------------------------------------
--------------------------------------------------------------
--------------------------------------------------------------
--------------------------------------------------------------
----------------------------------
---------12--12-------------------
--12>14----------14--12--12vvvv---
----------------------------------
----------------------------------
----------------------------------




Ваше мнение



Капча