Prime Mover By: Rush
================================
w +h+Q s^s^s^ Q s^s^s^Q s^s^s^ h+Q e w +h+Q e
+-----+------4-4-4-+---4-4-4---4-4-4-+-------+---+--------+
|4:-R-|------------|-4-------2-------|-------|---|--------|
|4:---|------------|-----------------|-5---5-|-5-|------5-|
+-----+------------+-----------------+-------+---+--------+
q s s e e s s q +Q e e e e e h Q e +h+Q e h Q s^ s^ s^
+---11-9----12-11-9-7-+--------------+-------+--------+-----11-11-11-+
|--------12-----------|--------------|-------|--------|--------------|
|-5-------------------|----5-5-5-5-5-|-5-----|------5-|-5------------|
+---------------------+--------------+---7-5-+--------+---7----------+
e e e e e e e e w w +w +w +w +w +w +w +H q
+-9-7------9-7-6---+---+---+----+----+----+----+----+----+------+
|-----11-7---------|---|-R-|----|----|----|----|----|----|------|
|------------------|---|---|----|----|----|----|----|----|------|
+----------------7-+-3-+---+----+----+----+----+----+----+----5-+
e e e e e e e e +e e e e e e e e e e e e e e e e +e e e e e e e e
+-----------------+------------------+-----------------+------------------+
|-----R-------R---|------R-----------|-----R-------R---|------R-----------|
|---------5-5-----|------------------|---------5-5-----|------------------|
+-7-7---7-------5-+----5---5-5-5-4-5-+-7-7---7-------5-+----5---5-5-5-4-5-+
e e e e e e e e +e e e e e e e e e e e e e e e e +e e e e e e e e w
+-----------------+------------------+-----------------+--------7-6-------+---+
|-----R-------R---|------R-----------|-----R-------R---|------R-----7-----|---|
|---------5-5-----|------------------|---------5-5-----|--------------7---|---|
+-7-7---7-------5-+----5---5-5-5-4-5-+-7-7---7-------5-+----5-----------7-+-3-+
+w q s s e e s s q q s s e e s s q q s s e q e e
+----+---11-9----12-11-9----+---11-9-7----11-9----+---11-9----12-12---+
|----|-R------12---------12-|-R--------12------12-|-R------12---------|
|----|----------------------|---------------------|-------------------|
+----+----------------------+---------------------+-----------------0-+
e e e e e e e e q s s e e s s q q s s e e s s q
+-----------------+---11-9----12-11-9----+---11-9----12-11-9----+
|-R---R---R---R---|-R------12---------12-|-R------12---------12-|
|-----------------|----------------------|----------------------|
+---0---0---0---0-+----------------------+----------------------+
q s s e q e e e e e e e e e e e e e q q e +e e e q e e e
+---11-9----12-12---+-----------------+-------------+------4-7-------+
|-R------12---------|-R---R---R-------|-----4-7---5-|----7-----5-5---|
|-----------------0-|---0---0---0-0-0-|-5-7-----5---|--------------5-|
+-------------------+-----------------+-------------+----------------+
e e e q e e e e e e e e e e e e e e q q e +e e e q e e e
+---------------+-----------------+-------------+------4-7-------+
|-------4-------|-R---R---R---R---|-----4-7---5-|----7-----5-5---|
|-2-4-5---7-5---|-----------------|-5-7-----5---|--------------5-|
+-------------0-+---0---0---0---0-+-------------+----------------+
e e e q e e e e e e e e e s E w e e e e e e e e
+---------------+-----------------+---+-----------------+
|-------4-------|-R---------------|---|---------7-7-7-5-|
|-2-4-5---7-5---|-----------------|---|-5-5-5-5---------|
+-------------5-+---5-5-5-5-5-5-7-+-3-+-----------------+
+e e e e s s s s s s s s e e e e e e e e +e e e s s e e q h+Q e
+--------------------------+-----7-------7---+------------------+-------+
|------4---5---4---5---7---|-4-4---4-5-5-----|------7-4-5-4-----|-----7-|
|----0---0---0---0---0---0-|---------------7-|----7---------5-7-|-------|
+--------------------------+-----------------+------------------+-7-----+
+h+Q e +h+Q e +h+Q e +h+Q e +h+Q e +h+Q e +e+h s s e e
+--------+--------+--------+--------+--------+--------+------------7-+
|------9-|------7-|------9-|------7-|------9-|------7-|----------7---|
|--------|--------|--------|--------|--------|--------|------5-7-----|
+------7-+------5-+------7-+------5-+------7-+------5-+--------------+
e e e e e e e e +e e e e e e e e e e e e e e e e e e e q e e e
+-----------------+------------------+-----------------+---------------+
|-----R---R---R---|------R-----------|-----R-------R---|-----R---------|
|-----------5-----|------------------|---------5-5---5-|---------------|
+-7-7---7-------5-+----5---5-5-5-4-5-+-7-7---7---------+-5-5---5-5-4-5-+
e e e e e e e e e e e q e e e e e e e e e e e e e e e e e e e w +w
+-----------------+---------------+-----------------+-------7-6-------+---+----+
|-----R-------R---|-----R---------|-----R-------R---|-----R-----7-----|---|----|
|---------5-5---5-|---------------|---------5-5---5-|-------------7---|---|----|
+-7-7---7---------+-5-5---5-5-4-5-+-7-7---7---------+-5-5-----------7-+-3-+----+
q s s e e s s q q s s e e s s q q s s e q e e
+---11-9----12-11-9----+---11-9----12-11-9----+---11-9----12-12---+
|-R------12---------12-|-R------12---------12-|-R------12---------|
|----------------------|----------------------|-------------------|
+----------------------+----------------------+-----------------0-+
e e e e e e e e q s s e e s s q q s s e e s s q
+-----------------+---11-9----12-11-9----+---11-9----12-11-9----+
|-R---R---R---R---|-R------12---------12-|-R------12---------12-|
|-----------------|----------------------|----------------------|
+---0---0---0---0-+----------------------+----------------------+
q s s e q e e e e e e e e e e e e e q q e +e e e q e e e
+---11-9----12-12---+-----------------+-------------+------4-7-------+
|-R------12---------|-R---R-----------|-----4-7---5-|----7-----5-5---|
|-----------------0-|---0---0-0-0-0-0-|-5-7-----5---|--------------5-|
+-------------------+-----------------+-------------+----------------+
e e e q e e e e e e e e e e e e e e q q e +e e e q e e e
+---------------+-----------------+-------------+------4-7-------+
|-------4-------|-R---R---R-------|-----4-7---5-|----7-----5-5---|
|-2-4-5---7-5---|-----------------|-5-7-----5---|--------------5-|
+-------------0-+---0---0---0-0-0-+-------------+----------------+
e e e q e e e +e e e e e e e e w +h+Q e h Q e +h+Q e h Q e
+---------------+------------------+---+--------+-------+--------+-------+
|-------4-------|------R-----------|---|--------|-------|--------|-------|
|-2-4-5---7-5---|------------------|---|------5-|-5-----|------5-|-5-----|
+-------------5-+----5---5-5-5-5-7-+-3-+--------+---7-5-+--------+---7-5-+
+h+Q e +H e e h+Q e +h+Q e h+Q e e+h e e e h+Q e e+h q e
+--------+--------+-------+--------+-------+-----------+-------+---------+
|--------|----2---|-------|--------|-------|-------2---|-------|---------|
|--------|------2-|-4---2-|------2-|-4---2-|-2---2---2-|-4---2-|-2---2-2-|
+------3-+--------+-------+--------+-------+-----------+-------+---------+
h+Q e e+h e e e h+Q e e+h q e h+Q e e+h e e e e e e e e e e e
+-------+-----------+-------+---------+-------+-----------+-----------------+
|-------|-------2---|-------|---------|-------|-------2---|-----R---2-2-R-2-|
|-4---2-|-2---2---2-|-4---2-|-2---2-2-|-4---2-|-2---2---2-|-4-4---4---------|
+-------+-----------+-------+---------+-------+-----------+-----------------+
e e e e e e e e e e e e e e e e e e e e e e e e e e e e e e e e
+-----------------+-----------------+-----------------+-----------------+
|-----R-----------|-----R---2-2-R-2-|-----------------|-----R---2-2-R-2-|
|-2-2---2-2-2-1-2-|-4-4---4---------|-2-2-2-2-2-2-1-2-|-4-4---4---------|
+-----------------+-----------------+-----------------+-----------------+
e e e e e e e e e h+Q +w +w +w +w +w w w h+Q e w
+-----------------+-------+----+----+----+----+----+---+---+-------+---+
|-----------------|---R---|----|----|----|----|----|---|---|-------|---|
|-2-2-2-2-2-2-2-2-|-------|----|----|----|----|----|-5-|---|-2-----|---|
+-----------------+-5-----+----+----+----+----+----+---+-3-+-----3-+-5-+
e e e Q q e e s s Q q e e e Q e e w e e e Q q e e s s Q q
+-----------+-------4-7---+-------------+---+-----------+-------4-7---+
|-----4-7---|-5-7-7-----5-|-------4-----|---|-----4-7---|-5-7-7-----5-|
|-5-7-----5-|-------------|-2-4-5---7-5-|---|-5-7-----5-|-------------|
+-----------+-------------+-------------+-0-+-----------+-------------+
e e e Q e e h e e s s e w +H q e e e e e e e e +e e e e e e e e
+-------------+-------------+---+------+-----------------+------------------+
|-------4-----|-------------|---|----7-|---------7-7-7-5-|----5-R-5-R-5-5---|
|-2-4-5---7-5-|-------------|---|------|-5-5-5-5---------|----------------5-|
+-------------+-5-5-5-5-5-7-+-3-+------+-----------------+------------------+
e e e e e e e e e e e e e e e e +q e e e e e e
+-----------------+-----------------+----------------+
|-4-4-4-4-5-5-5---|---------4-4-4---|--------7---7-5-|
|---------------7-|-7-7-7-7-------5-|------5---5-----|
+-----------------+-----------------+----5-----------+
+e e e e s s s s s s s s e e e e e e e e +e e e s s e q e
+--------------------------+-----7-------7---+------7-----------+
|------4---5---4---5---7---|-4-4---4-5-5-----|--------4-5-4-R---|
|----0---0---0---0---0---0-|---------------7-|----7-----------5-|
+--------------------------+-----------------+------------------+
+e e e e e e e e +e e e e s s s s s s s s e e e e e e e e
+------------------+--------------------------+-----7-------7---+
|----------7---7-5-|------4---5---4---5---7---|-4-4---4-5-5-----|
|----5---5---5-----|----0---0---0---0---0---0-|---------------7-|
+------5-----------+--------------------------+-----------------+
e e e e s s e e e +e e e e e e e e +e e e e s s s s s s s s
+-----7-------------+------------------+--------------------------+
|-------R-4-4-------|----------7---7-5-|------4---5---4---5---7---|
|-7-7---------5-7-5-|----5-0-5---5-----|----0---0---0---0---0---0-|
+-------------------+------------------+--------------------------+
e e e e e e e e e e e s s e e e e +e e e e e e e e
+-----7-------7---+-----7-------------+------------------+
|-4-4---4-5-5-----|-------4-5-4-------|----------7-----5-|
|---------------7-|-7-7---------5-7-5-|----5-0-5---5-5---|
+-----------------+-------------------+------------------+
+e e e e s s s s s s s s e e e e e e e e e e e e e e e e
+--------------------------+-----7-------7---+-----7-7---------+
|------4---5---4---5---7---|-4-4---4-5-5-----|---------5-4-----|
|----0---0---0---0---0---0-|---------------7-|-7-7---------7-5-|
+--------------------------+-----------------+-----------------+
+e e e e e e e e +e e e e s s s s s s s s e e e e e e e e
+------------------+--------------------------+-----7-------7---+
|----------7---7-5-|------4---5---4---5---7---|-4-4---4-5-5-----|
|----5-0-5---5-----|----0---0---0---0---0---0-|---------------7-|
+------------------+--------------------------+-----------------+
e e e s s e e e e +e e e e e e e e +e e e e s s s s s s s s
+-----7-------------+------------------+--------------------------+
|-------4-5-4-------|----------7-----5-|------4---5---4---5---7---|
|-7-7---------5-7-5-|----5-0-5---5-5---|----0---0---0---0---0---0-|
+-------------------+------------------+--------------------------+
e e e q e e e e e e e e e e e e q e e q e +e e e e s s s s s s s s
+-----7-----7---+-----7-7---------+-------------+--------------------------+
|-4-4---5-5-----|---------5-4-----|-------7-7-5-|------4---5---4---5---7---|
|-------------7-|-7-7---------7-5-|-5-5-5-------|----0---0---0---0---0---0-|
+---------------+-----------------+-------------+--------------------------+
e e e e e e e e e e q e e e e e q e e e e e +e e e e e e e e
+-----7-------7---+-----7---------+---------------+------------------+
|-4-4---4-5-5-----|-------5-4-----|-------7---7-5-|------4---5---7---|
|---------------7-|-7-7-------7-5-|-5-5-5---0-----|----0---0---0---0-|
+-----------------+---------------+---------------+------------------+
e e e e e e e e e e q e e e e e q e e e e e +e e e e e e e e
+-----7-------7---+-----7---------+---------------+------------------+
|-4-4---4-5-5-----|-------5-4-----|-------7---7-5-|------4---5---7---|
|---------------7-|-7-7-------7-5-|-5-5-5---0-----|----0---0---0---0-|
+-----------------+---------------+---------------+------------------+
==========================================================================
Created using the Bass Tab Creator
__ by Mario D'Alessio (motcid!marble!dalessio)
+|oo|+
+|oo|+ Notes: w = Whole h = Half q = Quarter
|| e = 8th s = 16th t = 32nd x = 64th
||
|| Capital durations are dotted notes
|| (equal to 1.5 times the duration value)
||
|| #
|| +----+ +----+
_ || _ |*--*+ = MEASURE |4:--| = TIME
_||_// |*--*+ REPEATS |4:--| SIGNATURES
| [] | +----+ (#=Num Repeats) +----+
| || |
/ [] + = TIE ^ = TRIPLET > = BEND
______/ H = HAMMER ON = SLIDE TO FRET R = Rest
P = PULL OFF X = SLIDE TO NOWHERE ~ = Trill




Ваше мнение



Капча