Hemispheres: Prelude By: Rush
================================
W w+e Q W w+e Q W w+e Q W w+e Q q e e e e q e e e e
+------+-------+---+-------+---+-------+---+-------+---------------------+
|12:---|-------|---|-------|---|-------|---|-------|---------------------|
| 8:---|-------|---|-------|---|-------|---|-------|-----7---7-----7---7-|
+----2-+-2---2-+-2-+-2---2-+-2-+-2---2-+-2-+-2---2-+-5-5---5---5-5---5---+
q e e e e e e e e e e q q e e h e e e e e e e e e e e e e e
+-----------------------+-------------4-+-5-3-2-------------------+
|-----------------------|-----------5---|-------5-3-2-3-5-3-2-----|
|-----7---7---7---7-----|-3-3---2-3-----|---------------------5-3-|
+-5-5---5---5---5---5-7-+-----3---------+-------------------------+
q q e e q e e e e e e e e e e e e e Q Q Q Q e e e Q Q e e e
+-------------------+---------------------+-------------+-------------+
|-------------------|---------------------|-------------|9:-----------|
|-------------------|-------------------5-|-2-----5-5-5-|8:-2---------|
+-1-1-0-1-3-3-3-1-3-+-5-5-5-5-5-5-3-3-3---+---2-3-------+-----2-3-3-3-+
Q Q Q e e e Q Q q e e e e q e Q q e Q q e Q q e e e e q e Q q e Q
+----------------+-----------3---+-------------+-----------------+-------------+
|12:-------3-3-3-|---------3---3-|-----R-----R-|-----R-----------|-----R-----R-|
| 8:-5---1-------|-5---1-1-------|-------------|-----------4-3-4-|-2-2---2-2---|
+------5---------+---5-----------+-2-2---2-2---+-2-2---2-2-------+-------------+
q e e e e q e e e e q e Q q e Q q e Q q e Q q e Q q e Q
+---------------4-3-4-+-------------+-------------+-------------+
|-----4-3-4-----------|-----R-----R-|-----R-----R-|-----R-----R-|
|-2-2-------2-2-------|-------------|-------------|-2-2---2-2---|
+---------------------+-2-2---2-2---+-2-2---2-2---+-------------+
q e Q q e e q q e Q q e Q q e Q q e e e e q e Q q e Q q q q
+---------------+-------------+-----------------+-------------+---------+
|-----R-----4-3-|-----R-----R-|-----R-----------|-----R-----R-|6:-------|
|-2-2---2-2-----|-------------|-----------7---7-|-5-5---5-5---|8:-5-5-5-|
+---------------+-5-5---5-5---+-5-5---5-5---5---+-------------+---------+
q h e e e e e e e e e e e e e e e e e s s e e e s s e s s e
+-------+-7-6-4-------+-----------------+-----------------+-7-6-4-4---------+
|3:---R-|-------7-5-4-|7:-5---5---5-----|3:-4---4---4-4---|---------7-5-5-4-|
|4:-5---|-------------|8:---7---7---7---|4:---7---7-----7-|-----------------|
+-------+-------------+---------------5-+-----------------+-----------------+
e e e e s s e e s s e s s e s s e e e e e s s e e e e e s s e e
+-------------------+---------------------+-7-6-4---------+-------------------+
|7:-5---5---5-5-----|3:-4-4---4-4---4-4---|-------7-5-5-4-|7:-5---5---5-5-----|
|8:---7---7-----7---|4:-----7-----7-----7-|---------------|8:---7---7-----7---|
+-----------------5-+---------------------+---------------+-----------------5-+
s s e s s e e e e e s s e e e e e e e e e e e e e e e e
+-------------------+-7-6-4-4-------+-----------------+---------------+
|3:-4-4---4-4-------|---------7-5-4-|7:-5---5---5-----|3:-4---4-------|
|4:-----7-----7-5-4-|---------------|8:---7---7---7---|4:---7---7-5-4-|
+-------------------+---------------+---------------5-+---------------+
e e e e e e e+h e e e e+h e e e q e q e e e h s e s s s s s
+-7-6-4-------+-------------+-----------+-------------+-----------------+
|-------7-5-4-|4:-----------|-----------|---------5---|-4-2-2-2-2-------|
|-------------|4:---------2-|---------2-|---2-3-5---5-|-----------5-4-2-|
+-------------+---3---3-5---+-2---2-5---+-3-----------+-----------------+
e e e q q s s e e e q q e e e e e e e e e s E q e e e e
+---------------+-------------+-----------------+---------------+
|-------5-4-5-5-|-4-2---------|-------5-4---7-5-|-4-4-4-2-------|
|---2-5---------|-----5-4-2---|---2-5-----5-----|---------5-4-2-|
+-3-------------+-----------5-+-3---------------+---------------+
q q s s e e q e e e e e q e e e e e w e e s s e s s e
+---------------+-------------+-------------+-----+---7-6-4-4---------+
|7:-----------5-|-4-2---------|---------5---|4:-4-|3:---------7-5-5-4-|
|8:---2-3-3-5---|-----5-4-2---|---2-3-5---5-|4:---|4:-----------------|
+---3-----------+-----------5-+-3-----------+-----+-------------------+
e e e e e e e q H e e e e s s e e e e e s s e e
+-----------------+-------+---7-6-4---------+-------------------+
|7:-5---5---5-----|4:-4-4-|3:-------7-5-5-4-|7:-5---5---5-5-----|
|8:---7---7---7---|4:-----|4:---------------|8:---7---7-----7---|
+---------------5-+-------+-----------------+-----------------5-+
q s E e s s e Q q q s s e+h e e e h e s s e e q e e e^e^e^q
+---------------+---------5-4-+-5---9-10-12-+-14-14-12-12-10-9-+-9-7-5---------+
|-4-4-4-5-5-7-5-|4:-3---3-----|-------------|------------------|-------7-5-4-2-|
|---------------|4:---3-------|-------------|------------------|---------------|
+---------------+-------------+-------------+------------------+---------------+
H +w w +w +w +w +w +w +w +h+Q e h+Q e h+Q e
+-----+------+---+----+----+----+----+----+----+--------+-------+-------+
|3:---|4:----|-R-|----|----|----|----|----|----|--------|-R-----|-R-----|
|4:---|4:----|---|----|----|----|----|----|----|--------|-------|-----5-|
+---0-+------+---+----+----+----+----+----+----+------0-+-----0-+-------+
h+Q e h+Q e h+Q e e e s+h s e h+Q e +H e e e e q q e e
+-------+-------+-------+-------------+-------+--------+-------------+
|-R-----|-R-----|-R-----|-R---R-------|-R-----|--------|-R---7-6-----|
|-----4-|-------|-----7-|---7-----5-5-|-----4-|----7---|-----------7-|
+-------+-----0-+-------+-------------+-------+------0-+---0-----7---+
+e e q q e e +e e q s e s e e +e e E s e e q q q q e e
+--------------+------------------+--------------4-+-----------+
|------7-6-----|------7-5-5-5-----|------7---6-7---|-R-7-6-----|
|----7-------7-|----7---------7-5-|----5---5-------|-------7-4-|
+----------7---+------------------+----------------+-----------+
+e e e e s s e s s s s e e e e e e e e e e e e e e e e
+------------------------+-----------------+-----------------+
|------7-6-7-7-7-7-6-4---|-----------------|-R---------------|
|----4-----------------7-|---------2-2-2-2-|---4-2---5-4-2---|
+------------------------+-5-5-5-5---------+-------5-------0-+
e e e s s e e e e +e e s s e s s e e e +e e e s s s s s s e e
+---------------4---+----11-9-9-7-6-6-4-----+------------------------+
|-R---7-7---6-7-----|-------------------7---|------7-7---6-7-6-4-----|
|---------7---------|-----------------------|----------7---------7-5-|
+---0-------------0-+---------------------0-+----0-------------------+
+e e e e e^e^e^q q q q e e e e e e s s e s s e e e e e e e e e
+----------7-6-----+-----------+---------4-4---------+-----------------+
|------7-6-----7-9-|-R-7-6-----|-R---7-6-----7-6-6---|-----------------|
|----5-------------|-------7-4-|---4---------------7-|-----------2-2-2-|
+------------------+-----------+---------------------+-5-5-5-5-5-------+
e e Q e q +q q q e e +e e e e e e e e +e e e e e e s s e Q q q e
+-----------+------------+------------------+--------------------+---------+
|-R---R---R-|----7-6-----|------------------|------------------7-|-4-2-----|
|---4---5---|--------7---|------------------|--------------7-7---|-----5-4-|
+-----------+----------0-+----0-0-0-0-5-0-2-+----2-2-2-2-5-------+---------+
+e q q e e e +e e e e e e e e +e e e e e e e e Q q q e +e q q e e e
+--------------+------------------+------------------+---------+--------------+
|--------------|------------------|------------------|-4-2-----|----------R---|
|----2---------|------------------|--------------2-4-|-----5-4-|----2---2---4-|
+------5-5-4-0-+----0-0-0-0-5-0-2-+----2-2-2-2-5-----+---------+------5-------+
w +q q e e w +e e e e e^e^e^ Q q e e e e e q e e
+---+------------+-----+------------------+-------------+-------------+
|---|3:----------|4:---|3:----------------|4:-----------|3:-R---------|
|-5-|4:--------4-|4:-5-|4:------------2-4-|4:-5---4-5-2-|4:---2-----4-|
+---+------4-0---+-----+------4-4-4-0-----+-----5-------+-------4-0---+
Q q e e e +e e e e e e e e e q e e e e e e e e e
+-------------+----------------+-----------------+---------------+
|4:-------R---|3:--------------|4:---------------|3:-R-----------|
|4:-5---4---2-|4:----2---2---4-|4:-5-4-5---4-5-2-|4:---2-------4-|
+-----5-------+--------4---0---+---------5-------+-------4-2-0---+
Q q s s e e e e e e e e e e e q e e e e e e e e e Q q q e
+---------------+---------------+-----------------+---------------+-----------+
|4:-------------|3:-R-----------|4:---------------|3:-R-----------|4:---4-7---|
|4:-5---4-4---2-|4:---2---2---4-|4:-5-4-5---4---2-|4:---2---2---4-|4:-5-----7-|
+-----5-----5---+-------4---0---+---------5---5---+-------4---0---+-----------+
e e e e e e Q e e e e e Q e e e e e Q e e e e e
+---------------+---------------+-------------+-------------+
|3:-R---6-6-----|4:-------------|-------------|-------------|
|4:---7-----7-4-|4:---------5-4-|-2---2-------|-------------|
+---------------+---3-2-3-2-----+---5---5-3-2-+-1-0-1-0-1-3-+
e s s e s s s e s s s s s Q e e e e e h q^q^q^ Q e e e e e
+---------------------------+-------------+---------+-------------+
|-------------7-5-5-5-4-----|---------5---|---------|-------------|
|-------7-7-7-----------7-5-|-------5---5-|-2-2-----|-----------3-|
+-5-5-5---------------------+-3-2-3-------+-----5-3-+-1-0-1-0-1---+
Q e e e e e Q e e e e e Q e Q e q e e e e e e e e e e q e w+e
+-------------+-------------+---------+--------------------------+---------+
|-----7-------|-------------|---------|12:-----------------------|-----R---|
|---7---7---2-|-3-2-3-2-----|---------| 8:-----------------------|---------|
+-5-------5---+---------3-2-+-1-1-3-3-+----5-5-5-5-5-3-3-3-3-3-3-+-2-2-----+
q e w+e q e w+e q e Q q e Q q e q e q e q e q e q e e e e e e e
+---------+---------+-------------+-----------------+---------------------+
|-----R---|-----R---|-----R-----R-|-------7-------7-|-------7---7---7-----|
|---------|-2-2-----|-2-2---2-2---|-----7-------7---|-----7---7---7---7-2-|
+-2-2-----+---------+-------------+-5-5-----5-5-----+-5-5-----------------+
q q e e q e e q e e e e e e e e e e e e h e e h e e e e e e e e q q q
+-----------------+-5-3-2-------------------+-------------+-----------2-7-5-4-+
|-----------------|-------5-3-2-------------|-------------|-----2-3-5---------|
|-3-3---2-3-3-2-3-|-------------5-3-2-------|-------------|-3-5---------------|
+-----3-----------+-------------------5-3-2-+-1-0-1-3-1-3-+-------------------+
W +W +W
+---+----+----+
|---|----|----|
|---|----|----|
+-0-+----+----+
==========================================================================
Created using the Bass Tab Creator
__ by Mario D'Alessio (motcid!marble!dalessio)
+|oo|+
+|oo|+ Notes: w = Whole h = Half q = Quarter
|| e = 8th s = 16th t = 32nd x = 64th
||
|| Capital durations are dotted notes
|| (equal to 1.5 times the duration value)
||
|| #
|| +----+ +----+
_ || _ |*--*+ = MEASURE |4:--| = TIME
_||_// |*--*+ REPEATS |4:--| SIGNATURES
| [] | +----+ (#=Num Repeats) +----+
| || |
/ [] + = TIE ^ = TRIPLET > = BEND
______/ H = HAMMER ON = SLIDE TO FRET R = Rest
P = PULL OFF X = SLIDE TO NOWHERE ~ = Trill




Ваше мнение



Капча