Date: Sun, 12 Oct 1997 14:13:10 -0400 (EDT)
From: [email protected]
Originally From: Vidar Bergh
Date: Fri, 25 Feb 1994 15:19:10 +0100
I think that Vidar Bergh`s chords are spot on and playing his tab is what
prompted me to try to dress it up a bit.
[email protected]

"Panacea" - Rush (CARESS OF STEEL ALBUM)
------------------------------------------------
INTRO SECTION
Am C G Am Am C GaddD
E|-------------------|-------0--0---|-----------------|-3-------|
B|--1--------1---1---|-0---0----1---|-1-------1---1---|-3-------|
G|----2--------0-----|---0------2---|---2-------0-----|-0-------|
D|-------------------|----------2---|-----------------|-0-------|
A|--0---0-2--3---3---|----------0---|-0---0-2-3---3---|-2-------|
E|-------------------|-3---3--------|----------------0|-3-------|

The whitness of confusion is unfolding from my mind.
DaddG,E slide to CaddD
E|-5-------------|-5---------5-|-3-------------|-3---------3-|
B|---5-------5---|---5---------|---3-------3---|---3---------|
G|-----0---0---0-|-----0---0---|-----0---0---0-|-----0---0---|
D|-------4-------|-------4-----|-------2-------|-------2-----|
A|-5-------------|-5---------5-|-3-------------|-3---------3-|
E|---------------|-------------|---------------|-------------|

I stare around in wonder. Have I left my life behind.
GaddD GaddD/B CaddD A* A
E|-3-------------|-3-------------|-3-----3-|-5-----5--787---5-|
B|---3-------3---|---3-------3---|---3-----|---5------------5-|
G|-----0---0---0-|-----0---0---0-|-----0---|-----2----------6-|
D|-------0-------|-------0-------|---------|----------------7-|
A|---------------|-2-------------|---------|-0-----0----------|
E|-3-------------|---------------|-3-----3-|------------------|

I catch the scent of ambergris and turn my head surprised.
A C Fmaj7 CaddD
E|-------------0---|---0-------0-|---0---------0-|-3-------3-|
B|-----2---2---2---|-----1-----1-|-----1-----1---|---3-------|
G|---2---2---------|-------0-----|-------2-------|-----0-----|
D|-----------------|-------------|---3-----3-----|-------0---|
A|---0---0---0---0-|---3-----3---|---------------|-----------|
E|-----------------|-------------|---------------|-3-------3-|

My gaze is caught, and held and I, am helpless, mesmerized.
strum freely
A C Fmaj7 E Esus4 E
E|-------------0---|---0-------0-|---0---------0-|-0----------0-------0-|
B|-----2---2---2---|-----1-----1-|-----1-----1---|-0----------0-------0-|
G|---2---2---------|-------0-----|-------2-------|-1----------2-------1-|
D|-----------------|-------------|---3-----3-----|-2----------2-------2-|
A|---0---0---0---0-|---3-----3---|---------------|-2----------2-------2-|
E|-----------------|-------------|---------------|-0----------0-------0-|

Panacea, liquid grace. Oh, let me touch your fragile face.
strum freely
AaddB C AaddB C
E|-0--------------|-0---------|-0-----------------------------|-0-------|
B|-0--------------|-1---------|-0-----------------------------|-1-------|
G|-6--------------|-0---------|-6-----------------------------|-0-------|
D|-7--------------|-2---------|-7-----------------------------|-2-------|
A|-7--------------|-3---------|-7-----------------------------|-3-------|
E|-5--------------|-----------|-5-----------------------------|---------|

Enchantment falls around me and I know I cannot leave.
Fmaj7/C GaddD G D E
E|-0--------------------|-3----|-3-----3-|-2-----2H3P2-----|-0-------|
B|-1--------------------|-3----|---0-----|---3---------3---|-0-------|
G|-2--------------------|-0----|-----0---|-----2---------2-|-1-------|
D|-3--------------------|-0----|---------|-0-----0---------|-2-------|
A|-0--------------------|-2----|---------|-----------------|-2-------|
E|----------------------|-3----|-3-----3-|-----------------|-0-------|

NOW PLAY INTRO SECTION (Am C G Am Am C GaddD)

DaddG,E CaddD
Here's a meaning for my life, a shelter from the storm.
GaddD G A* A
Pacify my troubles with her body, soft and warm.
DaddG,E CaddD
Naked in our unity, a smile for ev'ry tear.
GaddD G A* A
Gentle hands that promise me, comfort through the years.

A C Fmaj7 E Esus4 E
Yet I know I must be gone before the light of dawn.
AaddB C
Panacea, passion pure.
AaddB C NB adds in G X32011
I can't resist your gentle lure.
EXIT SECTION

My heart will lie beside you, and my wandering body grives.
Am GaddD Am E7 Am
E|------------------------|-3-------|-----------|-----0---|-0-------|
B|---0-0H1---3-1----------|---3-----|---0-1-3-1-|-0-----3-|-1-------|
G|-2----------------------|-----0---|-2---------|---0-----|-2-------|
D|------------------------|-------0-|-----------|---------|-2-------|
A|-0-------0--------------|---------|-0---------|-2-------|-0-------|
E|------------------------|-3-------|-----------|---------|---------|
Chords:
A X02220
A* X02255
Am X02210
AaddB 577600
C X32010
CaddG X32013
CaddD X32033
DaddG,E X54055
E 022100
E7 022130
Esus4 022200
Fmaj7 XX3210
G 320003
GaddD 320033
GaddD/B X20033
Any corrections/ammends are welcome (Quiiiiet)
Vincent Baranowski
email : [email protected]




Ваше мнение



Капча