Rush: Panacea
>From the album Caress of Steel (Mercury Records)
Copyright 1975 Core Music Publishing
Music by Lee
Lyrics by Peart
Comments/corrections to Sean Jones
Transcribed by Sean Jones
22 mm. H q Q q e q Q q e q Q q e q Q q e
----rest---|-r---||----9-7-6-|---9-7-6-|---------|---------
4:---------|-e-2/||*-7-------|-7-------|---5-4-2-|---5-4---
4:---------|-s---||*---------|---------|-3-------|-3-------
-----------|-t---||----------|---------|---------|---------
q H q w e q e Q w 4 mm. Q e h Q e h Q e h
---||-----|---|---7-----|---|---------|-------|-------||----------
2-*||-----|-5-|-5-----7-|---|-rest----|-------|-------||*---------
--*||-3-3/|---|-----5---|-0-|---------|-5-5-5-|-5-5-5-||*-5-5-5---
---||-----|---|---------|---|---------|-------|-------||----------
Q e h Q e h Q e h Q e h Q e h h h e e e e h Q
|-------|-------|-------|-------|-------|-----|------------||-----
|-------|-------|-------|-5-5-5-|-5-5-5-|-5---|-5-4-------*||-7---
|-5-5-5-|-3-3-3-|-3-3-3-|-------|-------|---0-|-----7-6-5-*||-----
|-------|-------|-------|-------|-------|-----|------------||-----
q e q Q Q q Q q e q Q q e q Q Q q q e q e q q e q
------|-------|---------|---------|-------||------9-7-6-|-----9---
7---7-|-------|-3-3---3-|---------|-------||*-7-7-------|-7-7-----
--7---|-3-3-3-|-----3---|-7-7-7-7-|-7-7-7/||*-----------|---------
------|-------|---------|---------|-------||------------|---------
e q q e q e q q e q e q w w w w
7-6-|-----------|------------||---|-r-|-r-|---||---
----|-----5-4-2-|-----5-4-2-*||-7-|-e-|-e-|-7-||---
----|-3-3-------|-3-3-------*||---|-s-|-s-|-0-||---
----|-----------|------------||---|-t-|-t-|---||---

==================================================================
== TABLATURE EXPLANATION ==
==================================================================
---------- ---------- ----t---
----5h8--- Hammeron ----(8)--- Ghost ----6--- Tap
---------- ---------- Note --------
----5p8--- Pulloff ---------- --------
---------- ---------- -----p--
----5/8--- Slide Up -----x---- Dead -----7-- Pop
---------- ---------- Note --s-----
----58--- Slide Down ---------- --5----- Slap
---------- ||------|| Repeat --------
----5~~~-- Vibrato ||*----*|| ---5^--- Bend
---------- ||*----*|| --------
---------- ||------|| --------
---------- ---------- --------
-4:------- Time ---------- --------
-4:------- Signature ---------- --------
---------- ---------- --------
Rhythm:
w = whole note W = dotted whole
h = half note H = dotted half
q = quarter note Q = dotted quarter
e = eighth note E = dotted eighth
s = sixteenth note S = dotted sixteenth
t = 32nd note T = dotted 32nd
x = 64th note X = dotted 64th
^ = triplet
==================================================================
== Created with a demo version of BUCKET O' TAB ==
== tablature creation software for Windows ==
== For more info email [email protected] ==
==================================================================




Ваше мнение



Капча