Open Secrets By: Rush
================================
s s s s e q Q +w s s s s e q e q +w s s s s e q Q +w
+-----------------+----+-------------2---+----+---------------+----+
|4:-2-3-2-----5-7-|----|-2-3-2-----5---3-|----|-2-3-2-----5-7-|----|
|4:-------5-3-----|----|-------5-3-------|----|-------5-3-----|----|
+-----------------+----+-----------------+----+---------------+----+
s s s s e q e q +w s s s s e q Q +w s s s s e q e q +e q e e e e e
+-------------2---+----+---------------+----+-------------2---+----------------+
|-2-3-2-----5---3-|----|-2-3-2-----5-7-|----|-2-3-2-----5---3-|----R-2-3-2-----|
|-------5-3-------|----|-------5-3-----|----|-------5-3-------|------------3-5-|
+-----------------+----+---------------+----+-----------------+----------------+
+Q q q e q q e e e e +Q q q e q q e e e e +h+Q e q e e e e e e
+----------+-------------+----------+-------------+--------+---------------+
|----------|-----3-2-----|----------|-------------|--------|---------------|
|----5-5---|-3-5-----3-5-|----5-5---|-3-5-5-3-----|--------|-----------3---|
+--------5-+-------------+--------5-+---------5-1-+------1-+-1-1-1-3-5---5-+
+e+h e q h+Q e e e e q e e e e e e q q e e e e q q e e e e q e e e
+----------+-------+-------5-------+-------5-----+-------5-----+-------5-------+
|----------|-------|-----3-------3-|-----3-----3-|-----3-----3-|-----3---------|
|------3---|-----3-|-5-5-----3-3---|-5-5-----3---|-5-5-----3---|-5-5-----3-3---|
+--------5-+-3-----+---------------+-------------+-------------+-------------3-+
Q Q e e Q Q e e Q q q e e e e e e e e e e e e q e e e e e e q q e
+---------+---------+---------+-----------------+-------5-------+-------5-----+
|---3-----|---3-----|-----3-5-|-----5---3-R-2---|-----3-------3-|-----3-----3-|
|-1-------|-1-------|---5-----|-------5-------3-|-5-5-----3-3---|-5-5-----3---|
+-----1-1-+-----1-1-+-3-------+-3-3-------------+---------------+-------------+
e e e q q e e e e q e e e Q Q e e Q Q e e Q q q e e e e e E E e
+-------5-----+-------5-------+---------+---------+---------+---------------+
|-----3-----3-|-----3---------|---3-----|---3-----|-----3-5-|-----5---3-2---|
|-5-5-----3---|-5-5-----3-3---|-1-------|-1-------|---5-----|-------5-----3-|
+-------------+-------------3-+-----1-1-+-----1-1-+-3-------+-3-3-----------+
w +w +w +h e e e e +Q q q e q q e e e e +Q q q e e e q e e e
+---+----+----+------------+----------+-------------+----------+---------------+
|---|----|----|----3-2-----|----------|-----3-2-----|----------|-------3-2-----|
|-5-|----|----|--------3-5-|----5-5---|-3-5-----3-5-|----5-5---|-3---5-----3-5-|
+---+----+----+------------+--------5-+-------------+--------5-+---5-----------+
+e e e q q e e e e e e e e e +e e e q e e e +e e e e e e q e+h q e
+--------------+-----------------+----------------+----------------+---------+
|--------------|-----R---3-2-----|------R-----R---|------R---------|---------|
|----5-5-5-5-5-|-5-5---5-----3-5-|----5---5-5---5-|----5---5-3-3---|---------|
+--------------+-----------------+----------------+--------------5-+-1---1-1-+
e e e e e e e e +e+h e e e q^q^q^s s s s e e +e e e q e q
+-----------------+------------+-------------------+--------------+
|-----------------|------------|-------2-3-2-------|------R-----R-|
|-------------3---|------------|-------------5-3-5-|----5---5-5---|
+-1-1-1-1-3-5---5-+------5-5-5-+-5-5-5-------------+--------------+
+e q e e e e e e e e q e q +e q e e e q w e Q e e e e +w+q q
+----------------+-------------+--------------+---+-------------+----------+
|--------3-2-----|-R---R-----R-|--------------|---|-------------|6:--------|
|----5-5-----3-5-|---5---5-5---|----5-5-3-3---|---|---------3---|4:--------|
+----------------+-------------+------------5-+-1-+-1-1-3-5---5-+--------5-+
w +h+Q e e e e q q e e e e q q e e e e q q e e e e q e e e
+-----+--------+-------5-----+-------5-----+-------5-----+-------5-------+
|4:---|--------|-----3-----3-|-----3-----3-|-----3-----3-|-----3---------|
|4:---|------3-|-5-5-----3---|-5-5-----3---|-5-5-----3---|-5-5-----3-3---|
+---3-+--------+-------------+-------------+-------------+-------------3-+
Q Q e e Q Q e e Q q q e e e e e e e e e e e e q q e e e e q q e
+---------+---------+---------+-----------------+-------5-----+-------5-----+
|---3-----|---3-----|-----3-5-|-----5---3---2---|-----3-----3-|-----3-----3-|
|-1-------|-1-------|---5-----|-------5---3---3-|-5-5-----3---|-5-5-----3---|
+-----1-1-+-----1-1-+-3-------+-3-3-------------+-------------+-------------+
e e e q q e e e e q e e e Q Q e e Q Q e e Q q q e E E e E E e w
+-------5-----+-------5-------+---------+---------+---------+-------------+---+
|-----3-----3-|-----3---------|---3-----|---3-----|-----3-5-|---5-3-2-----|---|
|-5-5-----3---|-5-5-----3-3---|-1-------|-1-------|---5-----|---------3-4-|-5-|
+-------------+-------------3-+-----1-1-+-----1-1-+-3-------+-3-----------+---+
+w +w +h e e e e +e e e q e e e +e e e e e e e e +e e e q e e e
+----+----+------------+----------------+------------------+----------------+
|----|----|----3-2-----|------R-----R---|------R---3-2-----|------R-----R---|
|----|----|--------3-5-|----5---5-5---5-|----5---5-----3-5-|----5---5-5---5-|
+----+----+------------+----------------+------------------+----------------+
+e e e e e e q q Q e e e e e e e e e e e +e+h e e e q^q^q^e e e e
+----------------+-----------+-----------------+------------+---------------+
|------R---------|---3-------|-----------------|------------|-------3-2-----|
|----5---5-3-3---|-----------|-------------3---|------------|-----------3-5-|
+--------------5-+-1---1-1-1-+-1-1-1-1-3-5---5-+------5-5-5-+-5-5-5---------+
+e e e q e q +e q e e e e e e e e q e q +e q e e e e e e+h e q
+--------------+----------------+-------------+----------------+---------+
|------R-----R-|--------3-2-----|-R---R-----R-|----------------|---------|
|----5---5-5---|----5-5-----3-5-|---5---5-5---|----5-5-3-3-5---|---------|
+--------------+----------------+-------------+--------------5-+-1---1-1-+
+e e e e e e e e e e w+q w +w w +w q H +e+h e e e q H
+------------------+-----------+-----+----+---+----+-----+------------+-----+
|------3-----------|6:-----7---|4:---|----|-R-|----|-----|------------|-----|
|--------------3---|4:---------|4:---|----|---|----|-5-5-|--------3---|-5-5-|
+----1---1-3-5---5-+---5-5-----+---3-+----+---+----+-----+------5---5-+-----+
+Q s s e e e e q H +e+h e e e q H +e q s s e e e e e e H +H e e
+----2-3-2-------+-----+------------+-----+------------------+-------+--------+
|----------5-3---|-----|------------|-----|--------------R---|-------|--------|
|--------------5-|-1-1-|------1-1---|-----|------------3---4-|-5-4-5-|----3---|
+----------------+-----+----------1-+-3-3-+----3-1-1-3-------+-------+------5-+
q H e s s e e e e q q H q e e q e e q e Q e e e q e e e e e
+-----+---2-3-2-----5-7-+-----+-------------+-----------+---------------+
|-----|---------3-R-----|-----|-------------|-----R-----|---R-------R---|
|-5-5-|-5---------------|-1-1-|-1-1---1-1---|-----------|---------3---4-|
+-----+-----------------+-----+-----1-----1-+-3-3---3-1-+-3---1-3-------+
e e H +e s s e q s s e e q H +Q e q e e q e+h e e q e q e e
+-------+----2-3-2---2-3-2---+-----+----5---7-3-+---------+-------------+
|-------|----------3-------3-|-----|------R-----|---------|---R---------|
|-5-5-5-|--------------------|-5-5-|------------|-1-1-----|-1-----1-1---|
+-------+--------------------+-----+------------+-------1-+-----1-----1-+
e Q e Q e e e e e e e e e e e q e e e +e q e s s s s e e
+---------+-----------------+-7---7---------+--------------------+
|---------|-R---------------|---7---5-5-7-2-|----3-3-2-3-2-------|
|---------|-----------2-3-4-|---------------|--------------5-3-5-|
+-3-3-3-3-+---3-3-3-3-------+---------------+--------------------+
e e e q e e e e e e e e e e e q e q e q e e e e e e e e
+-7---7---------+-----------------+---------3-+-3-5-7-5-3-2-----+
|---7---5-5-7-2-|-3-3-2-3-5-3-2---|-----3-----|-------------5-3-|
|---------------|---------------5-|-1-1---1---|-----------------|
+---------------+-----------------+-----------+-----------------+
e q s s e e e e e e e q e e e e e e q e e e e q e s s s s e e
+-----2-3-2-------+-------2-------+-7---7---------+-------------------+
|-----------5-3-2-|-3-5-3---3-2---|---7---5-5-7---|-7-3-3-2-3-2-------|
|---5-------------|-------------3-|-------------7-|-------------5-3-5-|
+-3---------------+---------------+---------------+-------------------+
e e e q e e e e e e e e e e e e e e q e e e +e e e q e e e
+-7---7---------+-------------2---+---3---------5-+----3-2-3-2-----+
|---7---5-5-7---|-7-5-R-2-3-2-----|-----R---3-----|------------5-3-|
|-------------7-|---------------0-|-1-----1---1---|----------------|
+---------------+-----------------+---------------+----------------+
e e e e e e e e e e e e e e s s e e e e e e e e e e e e e e e e e
+-------2-------2-+-------2-----------+---5---5---5---5-+---5---5---5---7-+
|-----R---5-------|-5-------5-3-2-3-2-|-----------------|-----------------|
|---5-------5-----|---5---------------|-3---3---3---3---|-3---3---3---5---|
+-3-----------3---+-----3-------------+-----------------+-----------------+
e e e e e e e e e s s s s e e e e e +Q q q e q q e e e e +Q q q e
+---3---3---3---3-+---------------------+----------+-------------+----------+
|-----------------|-------------3-2-----|----------|-----3-2-----|----------|
|-1---1---1---1---|-1-1-1-1-1-1-----3-5-|----5-5---|-3-5-----3-5-|----5-5---|
+-----------------+---------------------+--------5-+-------------+--------5-+
q q e e e e +e e e q e e e +e e q e e e e +e e e q e e e
+-------------+----------------+----------------+----------------+
|-----3-2-----|------R-----R---|--------3-2-----|------R-----R---|
|-3-5-----3-5-|----5---5-5---5-|----5-5-----3-5-|----5---5-5---5-|
+-------------+----------------+----------------+----------------+
e e e e e e e e e+h e e e +e e e e e e e e +e+h e e e E E e e e e e
+-----------------+-----------+------------------+------------+---------------+
|-----------------|-----------|------------------|------------|-7-5-7-3-2-----|
|-5-5-3-5-3-3-3---|-----------|--------------3---|------------|-----------3-5-|
+---------------5-+-1---1-1-1-+----1-1-1-3-5---5-+------5-5-5-+---------------+
+e e e q e e e e q e e e e e +e e e q e e e e e e e e e e e
+----------------+---------------+----------------+-----------------+
|------R-----R---|-------3-2-----|------R-----R---|-----------------|
|----5---5-5---5-|-5-5-5-----3-5-|----5---5-5---5-|-5-5-5-5-3-3-5---|
+----------------+---------------+----------------+---------------5-+
e+h e e e e e e e e e e e +w +q q w +e+h s s q w +w
+-----------+-----------------+----+--------+-----+------------+---+----+
|-----------|-----------------|----|2:------|4:---|------------|---|----|
|-----------|-------------3---|----|4:------|4:---|------------|---|----|
+-1---1-1-1-+-1-1-1-1-3-5---5-+----+------5-+---3-+------3-5-3-+-1-+----+
s s s s e q e q +w s s s s e q Q +w s s s s e q e q +w
+-----------------+----+---------------+----+-----------------+----+
|-2-3-2-----5-7-3-|----|-2-3-2-----5-7-|----|-2-3-2-----5-7-3-|----|
|-------5-3-------|----|-------5-3-----|----|-------5-3-------|----|
+-----------------+----+---------------+----+-----------------+----+
s s s s e q q s s s s e e e e e e e s s s s e q e e s s
+-------------------+-------------------+---------------------+
|-2-3-2-----5-7-2-3-|-2-----------------|-2-3-2-----5-7-R-2-3-|
|-------5-3---------|---5-3-5---3-5-----|-------5-3-----------|
+-------------------+---------5-----3-5-+---------------------+
s s e e e e e e e s s s s e q q s s s s e e e e e e e
+-------------------+-------------------+-------------------+
|-2-----------------|-2-3-2-----5-7-2-3-|-2-----------------|
|---5-3-5---3-5-----|-------5-3---------|---5-3-5---3-5-----|
+---------5-----3-5-+-------------------+---------5-----3-5-+
s s s s e q q s s s s e e e e e e e s s s s e q q s s
+-------------------+-------------------+-------------------+
|-2-3-2-----5-7-2-3-|-2-----------------|-2-3-2-----5-7-2-3-|
|-------5-3---------|---5-3-5---3-5-----|-------5-3---------|
+-------------------+---------5-----3-5-+-------------------+
s s e e e e e e e s s s s e q q s s s s e e e e e e e
+-------------------+-------------------+-------------------+
|-2-----------------|-2-3-2-----5-7-2-3-|-2-----------------|
|---5-3-5---3-5-----|-------5-3---------|---5-3-5---3-5-----|
+---------5-----3-5-+-------------------+---------5-----3-5-+
s s s s e q q s s s s e e e e e e e s s s s e q q s s
+-------------------+-------------------+-------------------+
|-2-3-2-----5-7-2-3-|-2-----------------|-2-3-2-----5-7-2-3-|
|-------5-3---------|---5-3-5---3-5-----|-------5-3---------|
+-------------------+---------5-----3-5-+-------------------+
s s e e e e e e e s s s s e q q s s s s e e e e e e e
+-------------------+-------------------+-------------------+
|-2-----------------|-2-3-2-----5-7-2-3-|-2-----------------|
|---5-3-5---3-5-----|-------5-3---------|---5-3-5---3-5-----|
+---------5-----3-5-+-------------------+---------5-----3-5-+
s s s s e q q s s s s e e e e e e e s s s s e q q s s
+-------------------+-------------------+-------------------+
|-2-3-2-----5-7-2-3-|-2-----------------|-2-3-2-----5-7-2-3-|
|-------5-3---------|---5-3-5---3-5-----|-------5-3---------|
+-------------------+---------5-----3-5-+-------------------+
s s e e e e e e e s s s s e q q s s
+-------------------+-------------------+
|-2-----------------|-2-3-2-----5-7-2-3-|
|---5-3-5---3-5-----|-------5-3---------|
+---------5-----3-5-+-------------------+
==========================================================================
Created using the Bass Tab Creator
__ by Mario D'Alessio (motcid!marble!dalessio)
+|oo|+
+|oo|+ Notes: w = Whole h = Half q = Quarter
|| e = 8th s = 16th t = 32nd x = 64th
||
|| Capital durations are dotted notes
|| (equal to 1.5 times the duration value)
||
|| #
|| +----+ +----+
_ || _ |*--*+ = MEASURE |4:--| = TIME
_||_// |*--*+ REPEATS |4:--| SIGNATURES
| [] | +----+ (#=Num Repeats) +----+
| || |
/ [] + = TIE ^ = TRIPLET > = BEND
______/ H = HAMMER ON = SLIDE TO FRET R = Rest
P = PULL OFF X = SLIDE TO NOWHERE ~ = Trill




Ваше мнение



Капча