Rush - New World Man
Tabbed By: sir p
EMail: [email protected]
More Rush Tabs At TabbersTemple.com
--------------------------------------------------------------------|---------
--------------------------------------------------------------------|---------
----------------------------------------------------------------7-7-|---------
-5---5-5---5-7-7------5-5-----7-7----5-5-5-----7-7------5-5---5-----|---------
---5-----5--------5-5-----5-5------5-------5-5------5-5-----5-------|---------
--------------------------------------------------------------------|---------
Synth intro. arranged for guitar
------------------------------------------------------------------------------
------------------------------------------------------------------------------
---------------------2-----------------------2-----------------------2--------
-0--0--2--0-/4p2--0-----0--0--2--0-/4--0--2-----0--0--2--0--4-----0-----0--0--
---------------------------------------------------------------0--------------
------------------------------------------------------------------------------
Riff-A
------------------|------------------------|---------------|---------------|--
------------------|------------------------|---------------|---------------|--
----------------2-|----------0-------------|---------------|---------------|--
-2--0--4-----0----|-------3--------------3-|---------------|---------------|--
----------0-------|----3-----------1--3----|---------------|---------------|--
------------------|-1----------------------|---------------|---------------|--
Riff-B Play 4x Play Riff-A 2x Play Riff-B 3x
-----------|---------------|--------------------------------------------------
-----------|-----3------3--|--------------------------------------------------
----------0|-----2------2--|--------------------------------------------------
-------3---|-0-0----0-0----|--------------------------------------------------
----3------|---------------|--------------------------------------------------
-1---------|---------------|--------------------------------------------------
------------------1--1-------------1--1------------3--3--|--------3/53-|----
------------------1--1-------------1--1------------3--3--|--------3/53-|----
-------------2----2--2------3------3--3--------2---3--3--|---------------|----
-----------3--------------3-----3------------5---5-------|---------------|----
---------3-----3--------1-----1------------5-------------|-5-5-5---------|----
-------1---------------------------------3---------------|-3-3-----------|----
Rhy.1 x x x x x . x x x x x . x x x x x . x x x
-----------|---------------3--3--|-----------|----------3--3--3--|------------
-----------|-------------3h5--3--|-----------|----------3--3--3--|------------
-----------|---------2-----------|-----------|------3---3--3--3--|------------
-----------|-----5-----5---------|-----------|----5-5---5--5--5--|------------
-----------|-5-5---5-------------|-----------|-5--------------5--|------------
-----------|---------------------|-----------|----------------3--|------------
Play Rhy.1 x x x x x x . Play Rhy.1 x x x
--------------------------------|-------------------1----1--1----1----1--1----
---------------3--3-3-3-3-3-3-3-|-3--3-3-3-3-3------1----1--1----3----3--3----
---------------2--2-2-0-0-0-2-2-|-2--2-2-0-0-0-2p0--2----2--2----3----3--3----
---------------0--0-0-0-4-----0-|-0--0-0-0-4--------3----3--3----3----3--3----
--------------------------------|-------------------3----3--3----1----1--1----
--------------------------------|-------------------1----1--1-----------------
Rhy.2 Play 7x d d d d d d u d Rhy.3
-----3------3-3-3--3-3-3----3-3-3--|-1----1--1----1----1--1-------3-------3---
-p1--3------3-3-3--3-3-3----3-3-3--|-1----1--1----3----3--3---p1--3-------3---
-----3------3-3-3--3-3-3----3-3-3--|-2----2--2----3----3--3-------3-------3---
-----5------5-5-5--5-5-5----5-5-5--|-3----3--3----3----3--3-------5-------5---
-----5----5-5-5-5--5-5-5--5-5-5-5--|-3----3--3----1----1--1-------5----5--5---
-----3----3-3-3-3--3-3-3--3-3-3-3--|-1----1--1--------------------3----3--3---
d d d u d d u d d d u d Rhy.4 d d u
--3------3--3---3--3------3-3-3--|--------------|------------------|----------
--3------3--3---3--3------3-3-3--|--------------|-3--3-3-3-3-3-3---|----------
--3------3--3---3--3------3-3-3--|--------------|-2--2-2-0-0-0-2-2-|----------
--5------5--5---5--5------5-5-5--|--------------|-0--0-0-0-4-----0-|----------
--5------5--5---5--5------5-5-5--|--------------|------------------|----------
--3------3--3---3--3------3-3-3--|--------------|------------------|----------
d d d d d d u d Play Rhy.2 5x d d d d d d u d
---------------|---------------|-----------|---------------|-----------|------
---------------|---------------|-----------|-----3------3--|-----------|------
---------------|---------------|----------0|-----2------2--|-----------|------
---------------|---------------|-------3---|-0-0----0-0----|-----------|------
---------------|---------------|----3------|---------------|-----------|------
---------------|---------------|-1---------|---------------|-----------|------
Play Riff-A 2x Play Riff-B 3x Play Rhy.1
--------3/53-|-----------|------------3--3--3-----|--------------|----------
--------3/53-|-----------|------------3--3--3-----|--------------|----------
---------------|-----------|------------3--3--3-----|--------------|----------
---------------|-----------|-----5---5--------------|--------------|----------
-5-5-5---------|-----------|-5-5---5----------------|--------------|----------
-3-3-----------|-----------|------------------------|--------------|----------
x x x Play Rhy.1 Play Rhy.2 7x
-------------|---------------|------------------------------------------------
-------------|---------------|-3--3--3-3-3-3-3--3-3--3--3-3-3-3------3-----3--
-------------|---------------|-2--2--2-2-2-2-2--2-2--2--2-2-2-2--2-2-2-2-2-2--
-------------|---------------|-0--0--0-0-0-0-0--0-0--0--0-0-0-0--0-0---0-0----
-------------|---------------|------------------------------------------------
-------------|---------------|------------------------------------------------
Play Rhy.3&4 Play Rhy.2 10x
----------------------|------------------------------0------------------------
---3------3-----3---3-|-----3-----3---3------3-------3---------3-----3---3----
-2-2--2-2-2-2-2-2-2-2-|-2-2-2-2-2-2-2-2--2-2-2-2--2--2--2--2---0h2-2-2-2-2----
-0----0-0---0-0---0-0-|-0-0---0-0---0-0--0-0---0--0-----0--0-0-----0---0------
----------------------|-------------------------------------------------------
----------------------|-------------------------------------------------------
--------------------|--------------|-----------------3---3-3--3-3-3-----------
----3---------------|--------------|-5---5-5--5-5-5--3---3-3--3-3-3--3--3-3---
-/2-------------4-4-|--------------|-5---5-5--5-5-5--0---0-0--0-0-0--2--2-2---
------42-0-2/4-4-4-|--------------|-5---5-5--5-5-5--5---5-5--5-5-5--0--0-0---
--------------------|--------------|-3---3-3--3-3-3--5---5-5--5-5-5-----------
--------------------|--------------|------------------------------------------
Play Rhy.2 8x Outro(Begin Fade) Repeat d d d
--------------------------|---------------------------------------------------
-3-3-3-3--3--3-3-3-3-3-3--|---------------------------------------------------
-0-0-0-2--2--2-2-0-0-0-2--|---------------------------------------------------
-0-4------0--0-0-0-4------|---------------------------------------------------
--------------------------|---------------------------------------------------
--------------------------|---------------------------------------------------
d d d u d d d d d d u




Ваше мнение



Капча