Neurotica By: Rush
========================
q E s e e +q q E s e e +q q E s e e +q q E s e e +q q E s e e
+-------------+----------------+--------------+--------------+--------------+
|3:-----------|4:--------------|--------------|--------------|--------------|
|4:---2-5-----|4:------2-5-----|------2-5-----|------2-5-----|------2-5-----|
+---5-----3-0-+------5-----3-0-+----5-----3-0-+----5-----3-0-+----5-----3-0-+
+q q E s e e +q q E s e e +q q E s e e +q q E s e e +q q E s e e
+--------------+--------------+--------------+--------------+--------------+
|--------------|--------------|--------------|------------R-|--------------|
|------2-5-----|------2-5-----|------2-5-----|------2-5-----|------2-5-----|
+----5-----3-0-+----5-----3-0-+----5-----3-0-+----5-----3---+----5-----3-0-+
+q q E s e e +q q E s e e +q q E s e e +q q E s e e +q q E s e e
+--------------+--------------+--------------+--------------+--------------+
|--------------|--------------|--------------|--------------|--------------|
|------2-5-----|------2-5-----|------2-5-----|------2-5-----|------2-5-----|
+----5-----3-0-+----5-----3-0-+----5-----3-0-+----5-----3-0-+----5-----3-0-+
+q q E s e e +q q e e e e +q q E s e e +q q E s e e +q q E s e e
+--------------+--------------+--------------+--------------+--------------+
|--------------|--------------|--------------|--------------|--------------|
|------2-5-----|------2-----2-|----------5-2-|----------5-2-|----------5-2-|
+----5-----3-0-+----5---3-0---+----0-2-5-----+----0-2-5-----+----0-2-5-----+
+q q E s e e +q q E s e e +q q E s e e +q q E s e e +q q E s e e
+--------------+--------------+--------------+--------------+--------------+
|--------------|--------------|--------------|--------------|--------------|
|----------5-2-|----------5-2-|----------5-2-|----------5-2-|----------5-2-|
+----0-2-5-----+----0-2-5-----+----0-2-5-----+----0-2-5-----+----0-2-5-----+
+q q E s e e +q q E s e e +q q q q Q q e e e e e e q e e e
+--------------+--------------+----------+-----------+---------------+
|--------------|--------------|----------|-----------|---------------|
|----------5-2-|----------5-2-|--------5-|-----------|-5-5-5-5-5-5-7-|
+----0-2-5-----+----0-2-5-----+----0-2---+-7-7-7-5-7-+---------------+
e e e q e e e e e e e e e e e Q q e e e e s s e q e e e
+---------------+-----------------+-----------+-----------------+
|---------------|-----------------|-----------|-----------------|
|---------------|-----------------|-----------|-5-5-5-5-5-5-4-7-|
+-5-5-5-5-5-7-5-+-3-3-2-3-5-5-3-5-+-7-7-7-5-7-+-----------------+
e e e e e e e e e e e e e e e e e e e e e e e e e e e e e e e e
+-----------------+-----------------+-----------------+-----------------+
|-----R-----------|-R---------------|-----R---R-------|-----R-----------|
|-----------------|-----------------|-----------------|-5-5---5-5-5-4-7-|
+-5-5---5-5-5-7-7-+---3-2-3-5-5-3-5-+-7-7---7---7-5-7-+-----------------+
e e e e e e e e e e e e e e e e e e e e e e e e e e e q e e e
+-----------------+-----------------+-----------------+---------------+
|-----R-----------|-----------------|-----R---R-------|-----R---------|
|-----------------|-----------------|-----------------|-5-5---5-5-4-7-|
+-5-5---5-5-5-7-5-+-3-3-2-3-5-5-3-5-+-7-7---7---7-5-7-+---------------+
e e e q e e e +e e e e e e q q E s e e +q q E s e e +q q E s e e
+---------------+----------------+-------------+----------------+--------------+
|-----R---------|--------------R-|3:-----------|4:--------------|--------------|
|---------------|----------------|4:---2-5-----|4:------2-5-----|------2-5-----|
+-5-5---5-5-7-3-+----3-2-3-5-5---+---5-----3-0-+------5-----3-0-+----5-----3-0-+
+q q E s e e +q q E s e e +q q E s e e +q q E s e e +q q E s e e
+--------------+--------------+--------------+--------------+--------------+
|--------------|--------------|--------------|--------------|--------------|
|------2-5-----|------2-5-----|------2-5-----|------2-5-----|------2-5-----|
+----5-----3-0-+----5-----3-0-+----5-----3-0-+----5-----3-0-+----5-----3-0-+
+q q E s e e +q q E s e e +q q E s e e +q q E s e e +q q E s e e
+--------------+--------------+--------------+--------------+--------------+
|--------------|--------------|--------------|--------------|--------------|
|------2-5-----|------2-5-----|------2-5-----|------2-5-----|------2-5-----|
+----5-----3-0-+----5-----3-0-+----5-----3-0-+----5-----3-0-+----5-----3-0-+
+q q e e e e +q q E s e e +q q E s e e +q q E s e e +q q E s e e
+--------------+--------------+--------------+--------------+--------------+
|--------------|--------------|--------------|--------------|--------------|
|------2-----2-|----------5-2-|----------5-2-|----------5-2-|----------5-2-|
+----5---2-0---+----0-2-5-----+----0-2-5-----+----0-2-5-----+----0-2-5-----+
+q q E s e e +q q E s e e +q q E s e e q q E s e e +q q E s e e
+--------------+--------------+--------------+-------------+--------------+
|--------------|--------------|--------------|-R-----------|--------------|
|----------5-2-|----------5-2-|----------5-2-|---------5-2-|----------5-2-|
+----0-2-5-----+----0-2-5-----+----0-2-5-----+---0-2-5-----+----0-2-5-----+
+q q E s e e +q q q q e e e q e e e e e e q e e e e e e e e e e e
+--------------+----------+---------------+---------------+-----------------+
|--------------|----------|-----R---------|---------------|-----R-----------|
|----------5-2-|--------5-|---------------|-5-5-5-5-5-4-7-|-----------------|
+----0-2-5-----+----0-2---+-7-7---7-7-5-7-+---------------+-5-5---5-5-5-7-5-+
e e e e e e e e e e e e e e e e e e e e e e s s e e e e e e e e e
+-----------------+-----------------+-------------------+-----------------+
|-----------------|-----R-----------|-----R-------------|-----R---R-------|
|-----------------|-----------------|-5-5---5-5-5-4-5-7-|-----------------|
+-3-3-2-3-5-5-3-5-+-7-7---7-7-7-5-7-+-------------------+-5-5---5---5-7-3-+
+e e e e e e e e e e e e e e e e e e e e e e s s e e e e e e e e e
+------------------+-----------------+-------------------+-----------------+
|------------------|-----R---R-------|-----R-------------|-----R-----------|
|------------------|-----------------|-5-5---5-5-5-4-5-7-|-----------------|
+----3-2-3-5-5-3-5-+-7-7---7---7-5-7-+-------------------+-5-5---5-5-5-7-5-+
e e e e e e e e e e e e e e e e e e e e e e s s e e e e e e e e e
+-----------------+-----------------+-------------------+-----------------+
|-----------------|-----R---R-------|-----R-------------|-----R-----------|
|-----------------|-----------------|-5-5---5-5-5-4-5-7-|-----------------|
+-3-3-2-3-5-5-3-5-+-7-7---7---7-5-7-+-------------------+-5-5---5-5-5-7-3-+
+e e e e e e q w +h+Q e w +Q e q q w +h+Q e w +Q e q q
+----------------+---+--------+---+----------+---+--------+---+----------+
|--------------R-|---|--------|---|----------|---|--------|---|----------|
|----------------|---|--------|---|----------|---|--------|---|----------|
+----3-2-3-5-5---+-0-+------0-+-0-+----5-5-3-+-0-+------0-+-0-+----5-5-3-+
Q q e e e +e q e q q Q q e e e e e e e q Q q q e +e e e e q q
+-----------+------------+-----------+-------------+-----------+--------------+
|-----------|--------5---|-----------|3:-----------|4:---------|--------5-5---|
|---2-2---3-|----3-3---5-|---2---2-3-|4:-3---2-5-5-|4:---2-2-3-|----3-3-----5-|
+-5-----3---+------------+-5---3-----+-----3-------+---5-------+--------------+
Q q q e e e e e q Q q q e e e e e q q Q q e e e
+---------+-------------+-----------+-------------+-----------+
|---------|3:-----------|4:---------|---------5---|-----------|
|---2-2-3-|4:-3-3-3-5-5-|4:---2---3-|-3---2-3---5-|---2-2-2-3-|
+-5-------+-------------+---5---5---+---3---------+-5---------+
e e e e e e e e e e e q e e e +e e e e e e e e e q e e e
+-----------------+---------------+----------------+-----------------+
|---------R-------|---------------|3:--------------|4:---------------|
|-3-3-3-5---5-5-7-|---------------|4:--------5-5-7-|4:---------------|
+-----------------+-0-0-0-2-2-2-3-+------3-3-------+---0-0-0-2-2-2-3-+
e e e e q q e e e q e e e +e e e e e e e e e e e e e e
+-------------+---------------+----------------+-------------------+
|-------------|---------------|3:--------------|4:-----------------|
|-------------|---------------|4:--------5-5-7-|4:-----------------|
+-3-3-3-5-5-3-+-0-0-0-2-2-2-3-+------3-3-------+---0-0-0-2-2-2-2-3-+
e e e e e e e e e e e e e e e e e e e q e s s e e e e e e e e e
+-----------------+-----------------+-----------------+-----------------+
|---------R-------|-----R---R-------|-----R-----------|-----R-----------|
|-----------------|-----------------|-5-5---5-5-4-5-7-|-----------------|
+-3-3-3-5---5-3-5-+-7-7---7---7-5-7-+-----------------+-5-5---5-5-5-7-5-+
e e e e e e e e e e e e e e e e e e e q e s s e e e e e e e e e
+-----------------+-----------------+-----------------+-----------------+
|-----------------|-----R---R-------|-----R-----------|-----R-----------|
|-----------------|-----------------|-5-5---5-5-4-5-7-|-----------------|
+-3-3-2-3-5-5-3-5-+-7-7---7---7-5-7-+-----------------+-5-5---5-5-5-7-3-+
+e e e e e e e e e e e e e e e e e e e q e s s e e e e e e e e e
+------------------+-----------------+-----------------+-----------------+
|------------------|-----R-----------|-----R-----------|-----R-----------|
|------------------|-----------------|-5-5---5-5-4-5-7-|-----------------|
+----3-2-3-5-5-3-5-+-7-7---7-7-7-5-7-+-----------------+-5-5---5-5-5-7-5-+
e e e e e e e e e e e e e e e e e e e q e s s e e e e e e e e e
+-----------------+-----------------+-----------------+-----------------+
|-----------------|-----R---R-------|-----R-----------|-----R---R-------|
|-----------------|-----------------|-5-5---5-5-4-5-7-|-----------------|
+-3-3-2-3-5-5-3-5-+-7-7---7---7-5-7-+-----------------+-5-5---5---5-7-3-+
+e e e e e e e e e e e e e e e e e e e q e s s e e e e q e e e
+------------------+-----------------+-----------------+---------------+
|------------------|-----R---R-------|-----R-----------|-----R---------|
|------------------|-----------------|-5-5---5-5-4-5-7-|---------------|
+----3-2-3-5-5-3-5-+-7-7---7---7-5-7-+-----------------+-5-5---5-5-7-5-+
e e e e e e e e e e e e e e e e e e e e e e s s e e e e q e e e
+-----------------+-----------------+-------------------+---------------+
|-----------------|-----R---R-------|-----R-------------|-----R---------|
|-----------------|-----------------|-5-5---5-5-5-4-5-7-|---------------|
+-3-3-2-3-5-5-3-5-+-7-7---7---7-5-7-+-------------------+-5-5---5-5-7-3-+
+e e e e e e e e e e H +w +w +w +w +w
+------------------+-------+----+----+----+----+----+
|------------------|-------|----|----|----|----|----|
|------------------|-2-2-2-|----|----|----|----|----|
+----3-2-3-5-5-3-5-+-------+----+----+----+----+----+
==========================================================================
Created using the Bass Tab Creator
__ by Mario D'Alessio (motcid!marble!dalessio)
+|oo|+
+|oo|+ Notes: w = Whole h = Half q = Quarter
|| e = 8th s = 16th t = 32nd x = 64th
||
|| Capital durations are dotted notes
|| (equal to 1.5 times the duration value)
||
|| #
|| +----+ +----+
_ || _ |*--*+ = MEASURE |4:--| = TIME
_||_// |*--*+ REPEATS |4:--| SIGNATURES
| [] | +----+ (#=Num Repeats) +----+
| || |
/ [] + = TIE ^ = TRIPLET > = BEND
______/ H = HAMMER ON = SLIDE TO FRET R = Rest
P = PULL OFF X = SLIDE TO NOWHERE ~ = Trill




Ваше мнение



Капча