"NEED SOME LOVE" guitar tabs
transcribed by George Grinch ([email protected])
verse chorus
|------------------------------------------|-----------------------------0-0--
|--4--5--4---4--5--4---2--2--2---5--5--5---|--3---3-3--------------------0-0--
|--4--4--4---4--4--4---2--2--2---4--4--4--.|--2---2-2--2---2-2------_--3------
|--4--2--4---4--2--4---2--2--2---2--2--2--.|--0---0-0--2---2-2--2--2-4--------
|--2--2--2---2--2--2---0--0--0---2--2--2---|-----------0---0-0--2-------------
|------------------------------0-----------|--------------------0-------------
[repeat four times]
_
-0-2-0--_-----------------------------------------_--------------------------
-0-----3-0--_---3---3-3--------------------------2-0----3---3-3--------------
-----------2-0--2---2-2--2---2-2---------------------2--2---2-2--2---2-2-----
----------------0---0-0--2---2-2--2--2-X-X-0-X-X--------0---0-0--2---2-2--2--
-------------------------0---0-0--2------------------------------0---0-0--2--
----------------------------------0---------------------------------------0--
---------------------------------------_------_------_--------|
--------------------------3--3--5--4--4-4-4--4-4-4--4-4-5--4--|
--------------------------0--2--4--4--4-4-4--4-4-4--4-4-4--4--| repeat verse
-----0-0-2-2-----0-0------0--0--2--4--4-4-4--4-4-4--4-4-2--4--| and chorus
-0-2---------0-2----------------2--2--2-2-2--2-2-2--2-2-2--2--|
---------------------0-3--------------------------------------|
bridge presolo
|--------------------------------------------------|---------------------------|
|--------------------------------------------------|--9-9-9-9-9>--9-9-9-9-9>---|
|-------------------------------------------------.|--9-9-9-9-9>--8-8-8-8-8>--.|
|-------------------------0--2-2-2-2-2------0-----.|--9-9-9-9-9>--7-7-7-7-7>--.|
|--2-2-2-2-2-2----0-2-0-2----0-0-0-0-0-0--2---0----|--7-7-7-7-7>--7-7-7-7-7>---|
|--0-0-0-0-0-0--3-------------------------------3--|---------------------------|
[repeat 6 times] [repeat 2 times]
solo
|------------------------------------------------------------------------
|-15------15--15-----------15---------15---------15---------15---------15
|-14>(16)-14>=(16)-14>(16)----14>(16)----14>(16)----14>(16)----14>(16)---
|------------------------------------------------------------------------
|------------------------------------------------------------------------
|------------------------------------------------------------------------
|-----------------------------
|-----------------------------
|-12----14----12-------12-14--
|----14----14----12>14--------
|-----------------------------
|-----------------------------
-----------------------------------------------------------------------------
-------------------------------------------_-----------_------------_--------
-14>-(16)-(16)-(16)-(16)-(16)-(16)-(16)>-14-12----14-14-12-----12-14-12-----
-----------------------------------------------12-14------->14----------14--
-----------------------------------------------------------------------------
-----------------------------------------------------------------------------
-------------------------------------------------------------------------
----15-------------_-----------_-----------------------------_-----------
14>----14>-(16)->14-12-14-12-14-12----12---------7-9>-(11)->9-7---9-7-7-9
-----------------------------------14----14--7-9----------------9--------
-------------------------------------------------------------------------
-------------------------------------------------------------------------
ending
gtr1 gtr2
------------------------------------|------|------|
------------------------------------|------|--9---|
-----7------------------------------|------|--9---|
-7-9---9-8-7---5-7-5-7-5----------|--2---|--9---|
---------------------------7-5-7




Ваше мнение



Капча