"Natural Science"
by Rush
from Permanent Waves
Lyrics by Neil Peart
Music by Geddy Lee & Alex Lifeson
Transcription by Paul Bryant ([email protected])
Song begins in 4/4
LEGEND: \ means slide down the neck toward headstock
! means play staccato
NOTE: Before you get your hopes up, alas, I did not transcribe the solos.
Sorry, I'm just not fast enough. The rest is pretty accurate,
though, and a pleasure to play even without the solos.
I. Tide Pools
Figure A:
|-2---2-2--0--|-0---0--0-0-|-3---3-3--5-|-5---5--5-5-|
|-2---2-2--0--|-0---0--0-0-|-3---3-3--5-|-5---5--5-5-|
|-4---4-4--2--|-2---2--2-2-|-5---5-5--7-|-7---7--7-7-|
|-4---4-4--2--|-2---2--2-2-|-5---5-5--7-|-7---7--7-7-|
|-2---2-2--0--|-0---0--0-0-|-3---3-3--5-|-5---5--5-5-|
|-------------|------------|------------|------------|
Repeat Figure A - "When the ebbing tide retreats"
Repeat Figure A - "Along the rocky shorelines"
Repeat Figure A - "It leaves a trail of tidal pools"
Repeat Figure A - "In a short-lived galaxy"
Figure B:
"Each microcosmic planet"
|-4---4-4-----|------------|-2----------|-4----------|
|-4---4-4-----|------------|-5----------|-7----------|
|-6---6-6-----|------------|-4----------|-6----------|
|-6---6-6-----|------------|-2----------|-4----------|
|-4---4-4-----|------------|-2----------|-4----------|
|-------------|------------|------------|------------|
Repeat Figure B - "A complete society"
|-2--2--2--4--|--4-4--4-4-4-|-2--2--2--0-|--0-0--0-0-0-|
|-2--2--2--4--|--4-4--4-4-4-|-2--2--2--0-|--0-0--0-0-0-|
|-4--4--4--6--|--6-6--6-6-6-|-4--4--4--2-|--2-2--2-2-2-|
|-4--4--4--6--|--6-6--6-6-6-|-4--4--4--2-|--2-2--2-2-2-|
|-2--2--2--4--|--4-4--4-4-4-|-2--2--2--0-|--0-0--0-0-0-|
|-2--2--2--4--|--4-4--4-4-4-|-2--2--2--0-|--0-0--0-0-0-|
|-2--2--2--4--|--4-4--4-4-4-|
|-2--2--2--4--|--4-4--4-4-4-|
|-4--4--4--6--|--6-6--6-6-6-|
|-4--4--4--6--|--6-6--6-6-6-|
|-2--2--2--4--|--4-4--4-4-4-|
|-2--2--2-----|-------------|
Repeat Figure A - "A simple kind of mirror to re-"
Repeat Figure A - "flect upon our own all the"
Repeat Figure A - "busy little creatures chasing"
Repeat Figure A - "out their destinies"
"Living in their pools ... about the sea" Hold
|-4--4--4--4--|--4-4--4-4-4-|-2--2--2--0-|------------|
|-4--4--4--4--|--4-4--4-4-4-|-2--2--2--0-|------------|
|-6--6--6--6--|--6-6--6-6-6-|-4--4--4--2-|------------|
|-6--6--6--6--|--6-6--6-6-6-|-4--4--4--2-|------------|
|-4--4--4--4--|--4-4--4-4-4-|-2--2--2--0-|------------|
|-------------|-------------|-2--2--2--0-|------------|
Figure C:
|-----------------|------------------|
|-----0-----------|-3----------------|
|---4-------0---2-|-------0---0---0--|
|-2-------0---0---|-----0------------|
|-------3---------|---2-----3---5----|
|-----------------|------------------|
Repeat Figure C: "Wheels within wheels in a"
Repeat Figure C - "spiral array a"
Repeat Figure C - "pattern so grand and com-"
Repeat Figure C - "plex."
Repeat Figure C - "Time after time we lose"
Repeat Figure C - "sight of the way our"
Repeat Figure C - "causes can't see their ef-"
Repeat Figure C - "fects"
Add Distortion
Repeat Figure C
Repeat Figure C
Repeat Figure C
Hold (w/ echo effects)
|-----------------|------------------|
|-----0-----------|-(3)--------------|
|---4-------0---2-|------------------|
|-2-------0---0---|------------------|
|-------3---------|------------------|
|-----------------|------------------|
II. Hyperspace
7/8 Time
|---------------|---------------|---------------|---------------|
|---------------|---------------|---------------|---------------|
|---------------|-------------2-|---------------|-------------2-|
|-4-2-4-2-4-2-0-|-4-2-4-2-4-5---|-4-2-4-2-4-2-0-|-4-2-4-2-4-5---|
|---------------|---------------|---------------|---------------|
|---------------|---------------|---------------|---------------|
|---------------|---------------|---------------|---------------|
|---------------|-------------3-|---------------|-------------3-|
|-4-2-4-2-4-2-0-|-4-2-4-2-4-5---|-4-2-4-2-4-2-0-|-4-2-4-2-4-5---|
|---------------|---------------|---------------|---------------|
|---------------|---------------|---------------|---------------|
|---------------|---------------|---------------|---------------|
4/4 Time
"A "
"Com-"
|---------|
|---------|
|-5-4-2---|
|-------5-|
|---------|
|---------|
7/8 Time
"Quantum leap forward in time and space"
"puterized clinic for superior cynics"
|---------------|---------------|---------------|---------------|
|---------------|---------------|---------------|---------------|
|---------------|-------------2-|---------------|-------------2-|
|-4-2-4-2-4-2-0-|-4-2-4-2-4-5---|-4-2-4-2-4-2-0-|-4-2-4-2-4-5---|
|---------------|---------------|---------------|---------------|
|---------------|---------------|---------------|---------------|
"The universe learned to expand"
"who dance to a synthetic band"
|---------------|---------------|---------------|---------------|
|---------------|-------------3-|---------------|-------------3-|
|-4-2-4-2-4-2-0-|-4-2-4-2-4-5---|-4-2-4-2-4-2-0-|-4-2-4-2-4-5---|
|---------------|---------------|---------------|---------------|
|---------------|---------------|---------------|---------------|
|---------------|---------------|---------------|---------------|
"The"
|---------------|
|---------------|
|-5-4-2---------|
|-------5-4-2---|
|-------------5-|
|---------------|
"mess and the magic triumphant and tragic a"
"In their own image their world is fashioned No"
|---------------|---------------|---------------|---------------|
|---------------|---------------|---------------|---------------|
|---------------|---------------|---------------|---------------|
|---------------|-------------2-|---------------|-------------2-|
|-4-2-4-2-4-2-0-|-4-2-4-2-4-5---|-4-2-4-2-4-2-0-|-4-2-4-2-4-5---|
|---------------|---------------|---------------|---------------|
"mechanized world out of hand"
"wonder they don't understand"
|---------------|---------------|---------------|---------------|
|---------------|---------------|---------------|---------------|
|---------------|-------------2-|---------------|-------------2-|
|-4-2-4-2-4-2-0-|-4-2-4-2-4-5---|-4-2-4-2-4-2-0-|-4-2-4-2-4-5---|
|---------------|---------------|---------------|---------------|
|---------------|---------------|---------------|---------------|
4/4 Time
[First Time]
|----------------|
|----------------|
|----------------|
|-5-4-2----------|
|-------5-4------|
|-----------5-\--|
[Second Time] [Drum Fill]
|----------------|---------------|--------------|
|----------------|---------------|--------------|
|----------------|---------------|--------------|
|-5-4-2----------|---------------|--------------|
|-------5-4------|-2-------------|--------------|
|-----------5-\--|---------------|--------------|
|----------|----------|----------|----------|
|----------|----------|----------|----3--3--|
|----4-444-|----2-222-|----------|----2--2--|
|-4--4-444-|-2--2-222-|----5--5--|----0--0--|
|-2--------|-0--------|-5--5--5--|----------|
|----------|----------|-3--------|-2--------|
|----------|----------|----------|----------|
|----------|----------|----------|----3--3--|
|----4-444-|----2-222-|----------|----2--2--|
|-4--4-444-|-2--2-222-|----5--5--|----0--0--|
|-2--------|-0--------|-5--5--5--|----------|
|----------|----------|-3--------|-2--------|
|----------|----------|----------|---2-222--|
|----------|---2-222--|----------|---2-222--|
|----6-666-|---1-111--|----2-222-|----------|
|-6--6-666-|----------|-2--2-222-|-4--------|
|-4--------|-2--------|-0--------|----------|
|----------|----------|----------|-4--------|
|----------|----------|----------|---2-222--|
|----------|---2-222--|----------|---2-222--|
|----6-666-|---1-111--|----2-222-|----------| [1st Time - Repeat Hyperspace]
|-6--6-666-|----------|-2--2-222-|-4--------|
|-4--------|-2--------|-0--------|----------| [2nd Time - Guitar solo 1]
|----------|----------|----------|-4--------|
Repeat Figure C: "Wheels within wheels in a"
Repeat Figure C - "spiral array a"
Repeat Figure C - "pattern so grand and com-"
Repeat Figure C - "plex."
Repeat Figure C - "Time after time we lose"
Repeat Figure C - "sight of the way our"
Repeat Figure C - "causes can't see their ef-"
Repeat Figure C - "fects"
Add Distortion
Repeat Figure C
Repeat Figure C
Repeat Figure C
2/4 Time 4/4 Time
|-----------------|----------|------------|-2----------|
|-----0-----------|-3--------|-3----------|-3----------|
|---4-------0---2-|-------0--|-0----------|-2----------|
|-2-------0---0---|-----0----|-2----------|-0----------|
|-------3---------|---2------|-3----------|------------|
|-----------------|----------|------------|------------|
III. Permanent Waves
! ! ! ! ! ! ! ! ! ! ! !
|-2--2--2--2-|-0--0--0--0-|-0--0--2--2-|
|-4--4--4--4-|-2--2--4--4-|-0--0--2--2-|
|-4--4--4--4-|-2--2--2--2-|-1--1--2--2-|
|-4--4--4--4-|-2--2--2--2-|-2--2--2--2-|
|-2--2--2--2-|-0--0--0--0-|-2--2-------|
|------------|------------|------------|
! ! ! ! ! ! ! ! ! ! ! !
|-2--2--2--2-|-0--0--0--0-|-0--0--2--2-|
|-4--4--4--4-|-2--2--4--4-|-0--0--2--2-|
|-4--4--4--4-|-2--2--2--2-|-1--1--2--2-|
|-4--4--4--4-|-2--2--2--2-|-2--2--2--2-|
|-2--2--2--2-|-0--0--0--0-|-2--2-------|
|------------|------------|------------|
! ! ! ! ! ! ! ! ! ! ! !
|-0--0-0-|-2--2--2--2-|-0--0--0--0-|-0--0--2--2-|---0---0-0-|
|-2--0-0-|-4--4--4--4-|-2--2--4--4-|-0--0--2--2-|---2---0-0-|
[1st time] |-2--1-1-|-4--4--4--4-|-2--2--2--2-|-1--1--2--2-|---2---1-1-|
Only |-2--2-2-|-4--4--4--4-|-2--2--2--2-|-2--2--2--2-|---2---2-2-|
|-0--2-2-|-2--2--2--2-|-0--0--0--0-|-2--2-------|---0---2-2-|
|----0-0-|------------|------------|------------|-------0-0-|
"Science, like Nature must also be tamed"
"Art as expression not as market cam-paigns"
|-2------0--0--0--|-3-3--3--3-2--3-2--|-------------0--|
|-3------2--2--2--|-0-0--0--0-0--0-0--|-3--3--3-3-2-0--|
|-2------2--2--2--|-0-0--0--0-0--0-0--|-2--2--2-2-2-0--|
|-4------0--0--0--|-0-0--0--0-0--0-0--|-2--2--2-2---0--|
|-5------0--0--0--|-2-2--2--2----2----|-----------2-2--|
|-----------------|-3-3--3--3-2--3-2--|----------------|
"with a view to - wards its preservation"
"will still capture our imagination"
|-2--3--5-3-----|-2------0--|-2-----3--|-0--------------|
|-3--3--2-3-----|-3------2--|-3-----0--|-0--------------|
|-2--2--2-2-----|-2------2--|-4-----0--|-1--------------|
|-0--0--2-0-----|-4------2--|-4-----0--|-2--------------|
|-------0-------|-----------|-2-----2--|-2--------0-2-4-|
|---------------|-----------|-------3--|-0--0-2-3-------|
"Given the same state of integrity"
"Given the same state of integrity"
|-2------0--0--0--|-3-3--3--3-2--3-2--|-------------0--|
|-3------2--2--2--|-0-0--0--0-0--0-0--|-3--3--3-3-2-0--|
|-2------2--2--2--|-0-0--0--0-0--0-0--|-2--2--2-2-2-0--|
|-4------0--0--0--|-0-0--0--0-0--0-0--|-2--2--2-2---0--|
|-5------0--0--0--|-2-2--2--2----2----|-----------2-2--|
|-----------------|-3-3--3--3-2--3-2--|----------------|
"it will surely serve us well"
"It will surely help us along"
|-2--3--5-3-----|-2------0--|-2-----3--|-0--------------|
|-3--3--2-3-----|-3------2--|-3-----0--|-0--------------|
|-2--2--2-2-----|-2------2--|-4-----0--|-1--------------|
|-0--0--2-0-----|-4------2--|-4-----0--|-2--------------|
|-------0-------|-----------|-2-----2--|-2--------0-2-4-|
|---------------|-----------|-------3--|-0--0-2-3-------|
Repeat III. Permanent Waves
Guitar Solo 2
"The most endangered species, the honest man"
|-2------0--0--0--|-3-3--3--3-2--3-2--|-------------0--|
|-3------2--2--2--|-0-0--0--0-0--0-0--|-3--3--3-3-2-0--|
|-2------2--2--2--|-0-0--0--0-0--0-0--|-2--2--2-2-2-0--|
|-4------0--0--0--|-0-0--0--0-0--0-0--|-2--2--2-2---0--|
|-5------0--0--0--|-2-2--2--2----2----|-----------2-2--|
|-----------------|-3-3--3--3-2--3-2--|----------------|
"will still survive annihilation"
|-2--3--5-3-----|-2------0--|-2-----3--|-0--------------|
|-3--3--2-3-----|-3------2--|-3-----0--|-0--------------|
|-2--2--2-2-----|-2------2--|-4-----0--|-1--------------|
|-0--0--2-0-----|-4------2--|-4-----0--|-2--------------|
|-------0-------|-----------|-2-----2--|-2--------0-2-4-|
|---------------|-----------|-------3--|-0--0-2-3-------|
"Forming a world, state of integrity"
|-2------0--0--0--|-3-3--3--3-2--3-2--|-------------0--|
|-3------2--2--2--|-0-0--0--0-0--0-0--|-3--3--3-3-2-0--|
|-2------2--2--2--|-0-0--0--0-0--0-0--|-2--2--2-2-2-0--|
|-4------0--0--0--|-0-0--0--0-0--0-0--|-2--2--2-2---0--|
|-5------0--0--0--|-2-2--2--2----2----|-----------2-2--|
|-----------------|-3-3--3--3-2--3-2--|----------------|
"sensitive, open and strong"
|-2--3--5-3-----|-2------0--|-2-----3--|
|-3--3--2-3-----|-3------2--|-3-----0--|
|-2--2--2-2-----|-2------2--|-4-----0--|
|-0--0--2-0-----|-4------2--|-4-----0--|
|-------0-------|-----------|-2-----2--|
|---------------|-----------|-------3--|
Figure D:
|--0-----3--|--2----3-3-2--|
|--0-----3--|--3----3-3-3--|
|--1-----0--|--2----0-0-2--|
|--2-----2--|--0--------0--|
|--2-----3--|-------2-2----|
|--0--------|--------------|
Repeat Figure D
Repeat Figure D
Repeat Figure D
Repeat Figure D
Repeat Figure D
|-2--2-2-2---|-0--0-0-0---|-3--3-3-3---|-5--5-5-5---|
|-2--2-2-2---|-0--0-0-0---|-3--3-3-3---|-5--5-5-5---|
|-4--4-4-4---|-2--2-2-2---|-5--5-5-5---|-7--7-7-7---|
|-4--4-4-4---|-2--2-2-2---|-5--5-5-5---|-7--7-7-7---|
|-2--2-2-2---|-0--0-0-0---|-3--3-3-3---|-5--5-5-5---|
|------------|------------|------------|------------|
|-2--2-2-2---|-0--0-0-0---|-3--3-3-3---|-5--5-5-5-\-|
|-2--2-2-2---|-0--0-0-0---|-3--3-3-3---|-5--5-5-5-\-|
|-4--4-4-4---|-2--2-2-2---|-5--5-5-5---|-7--7-7-7-\-|
|-4--4-4-4---|-2--2-2-2---|-5--5-5-5---|-7--7-7-7-\-|
|-2--2-2-2---|-0--0-0-0---|-3--3-3-3---|-5--5-5-5-\-|
|------------|------------|------------|------------|
|-4--4-4-4---|-2--2-2-2---|-7--7-7-7---|--9---9--9----|
|-4--4-4-4---|-2--2-2-2---|-7--7-7-7---|--9---9--9----|
|-6--6-6-6---|-4--4-4-4---|-9--9-9-9---|-11--11-11----|
|-6--6-6-6---|-4--4-4-4---|-9--9-9-9---|-11--11-11----|
|-4--4-4-4---|-2--2-2-2---|-7--7-7-7---|--9---9--9----|
|------------|------------|------------|--------------|
|-4--4-4-4---|-2--2-2-2---|-7--7-7-7---|--9---9--9----|
|-4--4-4-4---|-2--2-2-2---|-7--7-7-7---|--9---9--9----|
|-6--6-6-6---|-4--4-4-4---|-9--9-9-9---|-11--11-11----|
|-6--6-6-6---|-4--4-4-4---|-9--9-9-9---|-11--11-11----|
|-4--4-4-4---|-2--2-2-2---|-7--7-7-7---|--9---9--9----|
|------------|------------|------------|--------------|
"Wave after wave will flow with the tide and"
|-2--2-2-2---|-0--0-0-0---|-3--3-3-3---|-5--5-5-5---|
|-2--2-2-2---|-0--0-0-0---|-3--3-3-3---|-5--5-5-5---|
|-4--4-4-4---|-2--2-2-2---|-5--5-5-5---|-7--7-7-7---|
|-4--4-4-4---|-2--2-2-2---|-5--5-5-5---|-7--7-7-7---|
|-2--2-2-2---|-0--0-0-0---|-3--3-3-3---|-5--5-5-5---|
|------------|------------|------------|------------|
"bury the world as it does"
|-2--2-2-2---|-0--0-0-0---|-3--3-3-3---|-5--5-5-5-\-|
|-2--2-2-2---|-0--0-0-0---|-3--3-3-3---|-5--5-5-5-\-|
|-4--4-4-4---|-2--2-2-2---|-5--5-5-5---|-7--7-7-7-\-|
|-4--4-4-4---|-2--2-2-2---|-5--5-5-5---|-7--7-7-7-\-|
|-2--2-2-2---|-0--0-0-0---|-3--3-3-3---|-5--5-5-5-\-|
|------------|------------|------------|------------|
"Tide after tide will flow and recede leaving"
|-4--4--4-4--|-2--2--2-2--|-7--7--7-7--|--9---9--9-9---|
|-4--4-------|-2--2-------|-7--7-------|--9---9--------|
|-6--6-----6-|-4--4-----4-|-9--9-----9-|-11--11-----11-|
|-6--6-------|-4--4-------|-9--9-------|-11--11--------|
|-4--4-------|-2--2-------|-7--7-------|--9---9--------|
|------------|------------|------------|---------------|
"life to go on as it was"
|-4--4--4-4--|-2--2--2-2--|-7--7--7-7--|--9---9--9-9---|
|-4--4-------|-2--2-------|-7--7-------|--9---9--------|
|-6--6-----6-|-4--4-----4-|-9--9-----9-|-11--11-----11-|
|-6--6-------|-4--4-------|-9--9-------|-11--11--------|
|-4--4-------|-2--2-------|-7--7-------|--9---9--------|
|------------|------------|------------|---------------|
|-2--2--2--4----4-4--|------4-4-------4-4--|
|-2--2--2--4---------|---------------------|
|-4--4--4--6---6---6-|-----6---6-----6---6-|
|-4--4--4--6---------|-6---------6---------|
|-2--2--2--4---------|---------------------|
|--------------------|---------------------|
|-2--2--2--0----0-0--|------0-0-------0-0--|
|-2--2--2--0---------|---------------------|
|-4--4--4--2---2---2-|-----2---2-----2---2-|
|-4--4--4--2---------|-2---------2---------|
|-2--2--2--0---------|---------------------|
|--------------------|---------------------|
|-2--2--2--4----4-4--|------4-4-------4-4--|
|-2--2--2--4---------|---------------------|
|-4--4--4--6---6---6-|-----6---6-----6---6-|
|-4--4--4--6---------|-6---------6---------|
|-2--2--2--4---------|---------------------|
|--------------------|---------------------|
|-2--2--2--0---------|-0---------0---------|
|-2--2--2--0---------|-0---------0---------|
|-4--4--4--2---------|-2---------2---------|
|-4--4--4--2---------|-2---------2---------|
|-2--2--2--0---------|-0---------0---------|
|--------------------|---------------------|
Hold and Fade
|-0--0--2--4---------|---------------------|
|-0--0--2--4---------|---------------------|
|-2--2--4--6---------|---------------------|
|-2--2--4--6---------|---------------------|
|-0--0--2--4---------|---------------------|
|--------------------|---------------------|
Whew!
Now find a good drummer and have some fun with this song!




Ваше мнение



Капча