my little friend called valeria
s=slide down
/=slide up
x=palm mute

INTRO
e--------------------------)
b--------------------------)
g------9-----7-------------)
D----9-----7-------7-----9-)
A--7-----5-------7-----9---)
E--------------5-----7-----)
(....PLAY THIS 4 TIMES.....)
BRIDGE
e--------------------)
b--------------------)
g-9-x-9--9-9-9-9--99-)
D-9-x-9--9-9-9-9--77-)
A-7-x-7--7-7-7-7--77-)
E--------------------)
(.......2 times......)
chorus
e-------------------- -------------------- -
b-------------------- -------------------- -
g-9-x-9--9-9-9-9--99- -7-x-7--7-7-7-7--77- -
D-9-x-9--9-9-9-9--99- -7-x-7--7-7-7-7--77- -
A-7-x-7--7-7-7-7--77- -5-x-5--5-5-5-5--55- -
E-------------------- --------------------
e-------------------- --------------------
b-------------------- --------------------
g-------------------- --------------------
D-7-x-7--7-7-7-7--77- -9-x-9--9-9-9-9--99-
A-7-x-7--7-7-7-7--77- -9-x-9--9-9-9-9--99-
E-5-x-5--5-5-5-5--55- -7-x-7--7-7-7-7--77-
VERSE 1
e-------------------- --------------------
b-------------------- --------------------
g-9-x-9--9-9-9-9--99- -7-x-7--7-7-7-7--77-
D-9-x-9--9-9-9-9--99- -7-x-7--7-7-7-7--77-
A-7-x-7--7-7-7-7--77- -5-x-5--5-5-5-5--55-
E-------------------- --------------------
e-------------------- --------------------
b-------------------- --------------------
g-5-x-5--5-5-5-5--55-s-7-x-7--7-7-7-7--77-
D-3-x-3--3-3-3-3--33-s-7-x-7--7-7-7-7--77-
A-3-x-3--3-3-3-3--33-s-5-x-5--5-5-5-5--55-
E-------------------- --------------------
verse 2
e-------------------- --------------------
b-------------------- --------------------
g-9-x-9--9-9-9-9--99- -7-x-7--7-7-7-7--77-
D-9-x-9--9-9-9-9--99- -7-x-7--7-7-7-7--77-
A-7-x-7--7-7-7-7--77- -5-x-5--5-5-5-5--55-
E-------------------- --------------------
e-----------------------------------------
b-------------------- --------------------
g-------------------- --------------------
D-5-x-5--5-5-5-5--55-s-7-x-7--7-7-7-7--77-
A-3-x-3--3-3-3-3--33-s-7-x-7--7-7-7-7--77-
E-3-x-3--3-3-3-3--33-s-5-x-5--5-5-5-5--55-
verse 3
e-------------------- --------------------
b-------------------- --------------------
g-9-x-9--9-9-9-9--99- --------------------
D-9-x-9--9-9-9-9--99- -7-x-7--7-7-7-7--77-
A-7-x-7--7-7-7-7--77- -7-x-7--7-7-7-7--77-
E-------------------- -5-x-5--5-5-5-5--55-
e-------------------- --------------------
b-------------------- --------------------
g-5-x-5--5-5-5-5----- --------------------
D-5-x-5--5-5-5-5----- -5-x-5--5-5-5-5-----
A-3-x-3--3-3-3-3--33- -5-x-5--5-5-5-5-----
E-------------------- -3-x-3--3-3-3-3--33-
THAT'S ALL.ENJOY IT.ESPECIALLY VALERIA.




Ваше мнение



Капча