Mission By: Rush
========================
w +w +w +w +w +w +w +w +w +w +w +w +w +w +w
+-----+----+----+----+----+----+----+----+----+----+----+----+----+----+----+
|4:---|----|----|----|----|----|----|----|----|----|----|----|----|----|----|
|4:-R-|----|----|----|----|----|----|----|----|----|----|----|----|----|----|
|-----|----|----|----|----|----|----|----|----|----|----|----|----|----|----|
+-----+----+----+----+----+----+----+----+----+----+----+----+----+----+----+
e e e e e e e e e e e e e e e e e e e e e e e e e e e e e e e e
+-----------------+-4---4-----------+-----------------+-----------------+
|-----------------|-----------------|-----------------|---------------4-|
|-2-2-2-2-2-2-2-2-|---2---2-2-2-2---|-----------------|-----------------|
|-----------------|---------------2-|-0-0-0-0-0-0-0-0-|-0-0-0-0-0-0-0---|
+-----------------+-----------------+-----------------+-----------------+
e e e e e e e e e e e e e e e e e e e e e e e e e e e e e e e e
+-----------------+-4---4-3---3-1---+-----------------+-----------------+
|-6-6-6-6-6-6-6-6-|---4-----4-----4-|-4-4-4-4-4-4-4---|-----------------|
|-----------------|-----------------|---------------4-|---------------2-|
|-----------------|-----------------|-----------------|-2-2-2-2-4-2-4---|
+-----------------+-----------------+-----------------+-----------------+
e e e e e e e e e e e Q e e e e e e e e e e e e e e e e e e
+-----------------+-------------+-----------------+-----------------+
|-----------------|-------------|-----------------|---------------4-|
|-2-2-R-2-2-2-R-2-|-2-2-R-2-2---|-----R-------R---|-----R-----------|
|-----------------|-----------2-|-0-0---0-0-0---0-|-0-0---0-0-0-0---|
+-----------------+-------------+-----------------+-----------------+
e e e e e e e e e e e e e e e e e e e e e e e e e e e e e e e e
+-----------------+-4---4-3---3-1---+-----------------+-----------------+
|-6-6---6-6-6---6-|---4-----4-----4-|-4-4---4-4-4-4---|-----------------|
|-----R-------R---|-----------------|-----R---------4-|-----R---------2-|
|-----------------|-----------------|-----------------|-2-2---2-4-2-4---|
+-----------------+-----------------+-----------------+-----------------+
e e e e e e e e e e e e e e q e e e e e e e e e e e e e e e e
+-----------------+---------------+-----------------+-----------------+
|-----------------|---------------|-----2-------2---|-----2---------4-|
|-2-2-R-2-2-2-R-2-|-2-2-R-2-2-2-R-|-----------------|-------------R---|
|-----------------|---------------|-0-0---0-0-0---0-|-0-0---0-0-0-----|
+-----------------+---------------+-----------------+-----------------+
e e e e e e e e e e e e e e e e e e e e e e e e e e e e e e e e w
+-----------------+-4---4-3---3-1---+-----------------+-----------------+---+
|-6-6---6-6-6---6-|---4-----4-----4-|-4-4---4-4-4-4---|-----------------|---|
|-----R-------R---|-----------------|-----R---------4-|-----R-----------|---|
|-----------------|-----------------|-----------------|-2-2---2-2-2-2-2-|---|
+-----------------+-----------------+-----------------+-----------------+-3-+
+w w +w w +w w h q q w +w w w w +w w +w w w
+----+---+----+---+----+---+-------+---+----+---+---+---+----+---+----+---+---+
|----|---|----|---|----|---|-------|---|----|---|---|---|----|---|----|---|---|
|----|---|----|---|----|---|-------|---|----|---|---|---|----|---|----|---|---|
|----|---|----|---|----|---|---5-5-|-3-|----|-3-|-5-|---|----|---|----|-3-|-5-|
+----+-3-+----+-3-+----+-3-+-3-----+---+----+---+---+-3-+----+-3-+----+---+---+
w w w +w +w +H q e e e e e e e e e e e e e e e e
+---+---+---+----+----+------+-----------------+-----------------+
|---|---|---|----|----|----5-|-----------------|-----------------|
|-2-|-4-|---|----|----|------|-2-2-2-2-2-2-2-2-|-2-2-2-2-4-2-4---|
|---|---|---|----|----|------|-----------------|---------------0-|
+---+---+-3-+----+----+------+-----------------+-----------------+
+Q e e e e e e e e e e e e e +e e e e e e e e e e e e e e e e
+--------------+-----------------+------------------+-4---4-3---3-1---+
|--------------|---------------6-|----6-6-6-6-6-6-6-|---4-----4-----4-|
|--------------|-----------------|------------------|-----------------|
|----0-0-0-0-0-|-0-0-0-0-0-0-0---|------------------|-----------------|
+--------------+-----------------+------------------+-----------------+
+e e e e e e e e e e e e e e e e +q q e e e e e e e e e e e e
+------------------+-----------------+--------------+-----------------+
|----4-4-4-4-4-4---|-----------------|--------------|-----------------|
|----------------4-|---------------2-|----2-2-2-2-2-|-2-2-2-2-4-2-----|
|------------------|-2-2-2-2-4-2-4---|--------------|-------------4-0-|
+------------------+-----------------+--------------+-----------------+
+e e e e e e e e e e e e e e e e +e e e e e e e e e e e e e e e e
+------------------+-----------------+------------------+-4---4-3---3-1---+
|----------2-------|---------2-----6-|----6-6-6-6-6-6-6-|---4-----4-----4-|
|------------------|-----------------|------------------|-----------------|
|----0-0-0---0-0-0-|-0-0-0-0---0-0---|------------------|-----------------|
+------------------+-----------------+------------------+-----------------+
+e e e e e e e e e e e e e e e e w +w +w +w +w +h q q w +w
+------------------+-----------------+---+----+----+----+----+--------+---+----+
|----4-4-4-4-4-4---|-----------------|---|----|----|----|----|--------|---|----|
|----------------4-|-----------------|---|----|----|----|----|--------|---|----|
|------------------|-2-2-2-2-2-2-2-2-|---|----|----|----|----|----5-5-|-3-|----|
+------------------+-----------------+-3-+----+----+----+----+--------+---+----+
+w w w +w w +h q q w w w w w e e e e e e e e e e
+----+---+---+----+---+--------+---+---+---+---+---+-----------------------+
|----|---|---|----|---|--------|---|---|---|---|---|5:---------------------|
|----|---|---|----|---|--------|---|---|-2-|-4-|---|4:-2-2-2-2-2-2-2-2-2---|
|----|-5-|---|----|---|----5-5-|-3-|-5-|---|---|---|---------------------2-|
+----+---+-3-+----+-3-+--------+---+---+---+---+-3-+-----------------------+
e e e e e e e e e e e e e q e e e e e e e e q e e e e e
+---------------------+-------------------+-------------------+
|-------------------4-|-6-6-6-6-6-6-6-6-1-|-4-4-4-4-4-4-6-4-1-|
|---------R-----------|-------------------|-------------------|
|-0-0-0-0---0-0-0-0---|-------------------|-------------------|
+---------------------+-------------------+-------------------+
e e e e e e e e e e e e e e e e e e e e e e e q e e e e e
+---------------------+---------------------+-------------------+
|---------------------|-------------------4-|-6-6-6-6-6-6-6-6-1-|
|-2-2-2-2-2-2-2-2-2---|---------------------|-------------------|
|-------------------2-|-0-0-0-0-0-0-0-0-0---|-------------------|
+---------------------+---------------------+-------------------+
e e e q e e e e e q e Q q q q e q e q q q e Q q q q e Q e s s e e
+-------------------+-3---------+-3-----------+-3---------+-3-----3-15-15------+
|-4-4-4-4-4-4-4-4-6-|-----------|-------------|-----------|---------------15---|
|-------------------|---R-4-6---|---R-4-6-6---|---R-4-6---|---R-4------------R-|
|-------------------|---------6-|-----------6-|---------6-|--------------------|
+-------------------+-----------+-------------+-----------+--------------------+
e e e q e q e e e e e q e s s e s s e e e e q e e s s e e
+-3---------------+-3---------------------+-3---3---------------+
|---3-------------|---3-------------------|---3-----------------|
|-----R-4-5-6-----|-----R-4-5-6-6---6-6---|-------4-5-6---------|
|-------------4-6-|---------------6-----6-|-------------6-6-4-6-|
+-----------------+-----------------------+---------------------+
e e e q e q q +e e Q s s s s s s q Q s s s s s s
+-3-------------+------------------------+-------------------+
|---3-----------|4:----3-----------------|-9-----------------|
|-----R-4-5-6-R-|4:------R-7-7-9-9-10-10-|---R-7-7-9-9-10-10-|
|---------------|------------------------|-------------------|
+---------------+------------------------+-------------------+
s s s s q Q s s s s s s q e+h s s s s e
+--------------------------------+------------------+
|5:-9-9--------------------------|-9----------------|
|4:-----10-10-12-R-7-7-9-9-10-10-|---R---7-7-9-9-10-|
|--------------------------------|------------------|
+--------------------------------+------------------+
E E e s s s s s s s s q e q e q e e e e e q e q s s e
+--------------------7-7-9-9-+---12-------------+-5-5---------------+
|4:----7-9-7-7-10-10---------|5:------1-2-3-----|-------1-2-3-3-3---|
|4:-10-----------------------|4:----R-------1-3-|-----R-----------3-|
|----------------------------|------------------|-------------------|
+----------------------------+------------------+-------------------+
e e e q e q e e e e e q e q e e w +w +w +w w +w +w +w
+-5---5-----------+-5---5-----------+-----+----+----+----+---+----+----+----+
|-------1-2-3-----|-------1-2-3-----|4:---|----|----|----|---|----|----|----|
|---3---------1-3-|---3---------3-3-|4:-5-|----|----|----|-R-|----|----|----|
|-----------------|-----------------|-----|----|----|----|---|----|----|----|
+-----------------+-----------------+-----+----+----+----+---+----+----+----+
+w +e e e e e e e e +h+Q e q q Q e h+Q e q q Q e h+Q e q q Q e
+----+------------------+--------+---------+-------+---------+-------+---------+
|----|------------------|--------|---------|-------|---------|-------|---------|
|----|----------------5-|------5-|-5-5-R-5-|-R---5-|-5-5-R-5-|-------|-----R---|
|----|----5-5-5-5-5-5---|--------|---------|-------|---------|-3---3-|-5-5---5-|
+----+------------------+--------+---------+-------+---------+-------+---------+
h+Q e q q e e e e w w w w w w w w w w w w w w
+-------+-------------+---+---+---+---+---+---+---+---+---+---+---+---+---+---+
|-------|-------------|---|---|---|---|---|---|---|---|---|---|---|---|---|---|
|-------|-----R-------|---|---|---|---|---|---|-2-|-4-|---|---|---|---|---|---|
|-3---3-|-5-5---5-5-5-|---|---|---|---|-3-|-5-|---|---|---|---|---|---|-3-|-5-|
+-------+-------------+-3-+-3-+-3-+-3-+---+---+---+---+-3-+-3-+-3-+-3-+---+---+
w w w w w w w w w w w w w H e e +w w w w
+---+---+---+---+---+---+---+---+---+---+---+---+---+-------+----+---+---+---+
|---|---|---|---|---|---|---|---|---|---|---|---|---|-------|----|---|---|---|
|-2-|-4-|---|---|---|---|---|---|-2-|-4-|---|---|---|-------|----|---|-2-|-4-|
|---|---|---|---|---|---|-3-|-5-|---|---|---|---|---|-----3-|----|-5-|---|---|
+---+---+-3-+-3-+-3-+-3-+---+---+---+---+-3-+-3-+-3-+-3-3---+----+---+---+---+
w w w w w
+---+---+---+---+---+
|---|---|---|---|---|
|---|---|---|---|---|
|---|---|---|---|-3-|
+-3-+-3-+-3-+-3-+---+
==========================================================================
__ Created using the Bass Tab Creator
+|o | by Mario D'Alessio (motcid!marble!dalessio)
+|oo|+
+|oo|+ Notes: w = Whole h = Half q = Quarter
|| e = 8th s = 16th t = 32nd x = 64th
||
|| Capital durations are dotted notes
|| (equal to 1.5 times the duration value)
||
|| #
|| +----+ +----+
_ || _ |*--*+ = MEASURE |4:--| = TIME
_||_// |*--*+ REPEATS |4:--| SIGNATURES
| [] | +----+ (#=Num Repeats) +----+
| || |
/ [] + = TIE ^ = TRIPLET > = BEND
______/ H = HAMMER ON = SLIDE TO FRET R = Rest
P = PULL OFF X = SLIDE TO NOWHERE ~ = Trill




Ваше мнение



Капча