From: Anthony J Zimmermann
Middletown Dreams
by Rush, Power Windows
Mercury Records / Anthem Entertainment
Transcribed by Tony Zimmermann
Comments welcome
Am : x02210
G : 320033
F : 133211
Dm : x57765
Bb : x13331
Csus2: x35533
G/B : x20033
----------------------------------------------8-----------------------
--15-------------------------------15------------10-------------------
--12------------5------0-----------12-------9-------------------------
--14----------------5-----0--------14----12---------------------------
--12------5--7---------------0-----12---------------------------------
----------------------------------------------------------------------
Office door... rake
--------------------5----5--------------------------------------------
---------------------3---3--------------------------------------------
-(2)------0-----------2--2--------------------------------------------
-(2)----0--------------2-2--------------------------------------------
--0---2------3-----------0--------------------------------------------
----------------------------------------------------------------------
But he's still...
----------------------------------------------------------------------
-------1------1-----1---------------0---------------0-----------------
-----0------0-----0-------0-------5---5---5-------5---5---5-----------
---2------2-----2-------0-------5-------5-------5-------5-------------
-0--------------------2-------3---------------3-----------------------
----------------------------------------------------------------------
Another day... Slapback delay
---------------------------------------------------3------------------
-15---------------------------------3---------------------------------
-12-------------------------------5---5---5------5--------------------
-14-----------------------------5-------5------5----------------------
-12---------------------------3--------------3------------------------
----------------------------------------------------------------------
Whoa.....
F Am G F
----------------------------------------------------------------------
----------------------------------------------10-------10-------------
----------------------------------------------------------------------
-----------------------------------------/10------10------------------
----------------------------------------------------------------------
----------------------------------------------------------------------
Dreams flow....
Am, G, F
Am, G, F
Am, G/B, F
....Boy walks..... 1,2 3 4
--5--------------3------3--3----|-------------|------------|------------
--8--------------3------x--x----|-------------|------------|------------
--5--//-------0--5--//--7--7----|-------------|------------|------------
--7---------0----5------5--5----|----5--------|----5-------|-----5---
--5-------2------3------3--3----|-/7---5---|-/7---5--|--/7---PH---
--------------------------------|---------PH--|--------PH--|------------
Synth (arr. for guitar)
-----------------|------------------|------------------|------------------
----13-----------|-----12-----------|-----10------10---|-----12-----------
14------14--14---|-12------12--14---|-10------10-------|-12------12--14---
--14--14--14--14-|---12--12--12--10-|---12--12--12--12-|---14--14--14--14-
-----------------|------------------|------------------|------------------
-----------------|------------------|------------------|------------------
----------------------------------|----------------|-----------|-13----------
-10------12------10------12-------|----------------|--12-------|---13--------
--9--//--12--//--10--//--12--//---|--/---------|----12-----|-----12-H-14-
-10------12------10------12-------|-----PH--/--|------12---|-------------
----------------------------------|------------PH--|--------12-|-------------
----------------------------------|----------------|-----------|-------------
-(20)-20---17-H-20-P-17----17-----------------------------------------
---F--rel---------------20----17-H-20-(20)----------13--15------------
----------------------------------------F------/14----------14--------
----------------------------------------------------------------------
----------------------------------------------------------------------
----------------------------------------------------------------------
------------------------------------------17-P-15----15----------------
--------------------------------------------------17----17-\-15-P-13---
-14--12-14-12-14---12--14-12-14-12-14-------------------------------12-
-----------------------------------------------------------------------
------------------------------------------Outline C Pentatonic Major---
-----------------------------------------------------------------------
-----12--15------12--(13)---------------------------------------------
-13----------13-------F-----13--15--12--13--12----12--13--(15)--------
-----------------------------------------------14----------F----------
----------------------------------------------------------------------
----------------------------------------------------------------------
----------------------------------------------------------------------
Dm, F, Bb, Csus2, Dm
-----------------------------------------------------------------------------
---------------------------------------------------------------6-6------6----
--------10----10---------10---10-------3---3--------5---5--------------------
--10--10----10-----10--10---10-----------------------------------------------
----------------------------------1--1---1-----3--3---3----5--5-5---5--5-7-7-
-----------------------------------------------------------------------------
--------------------------------------------3-------------------------
-------10---10--------10--10-------------------3---6------------------
-------------------------------2----3----5---------7-//---9---9-------
-10--10---10----10--10--10-----2----3----5---------7------10--10------
-------------------------------0----1----3---------5------7---7-------
----------------------------------------------------------------------
---------------------------------1--------3------ -5-
---------8-------8---------------1--------3------ -8-
------10---10------10------2--2--3--------5------ -5-
---10---------10------10---2--2--3--------5------ -7-
-8-------------------------0--0--1--------3------ -5-
------------------------------------------------- ---




Ваше мнение



Капча