Date: Sat, 7 Oct 1995 18:01:44 -0700 (MST)
From: "Anthony John Zimmermann"
Subject: TAB: /r/rush/making_memories.tab

Rush
Making Memories
Fly By Night
Music and Lyrics by Lee, Lifeson, and Peart

Transcribed by Tony Zimmermann,
comments welcome

Acoustic 6-string (12-string recommended)
Verses:
---2--------5--------0-------------2--------5--------0----------------
---3--------6--------3-------------3--------6--------3----------------
---2---//---5---//---0---//---//---2---//---5---//---0---//---//------
---0--------0--------2-------------0--------0--------2----------------
---------------------3-------------------------------3----------------
----------------------------------------------------------------------
D F/D Cadd9 D F/D Cadd9

Bridge:
---7-------------2-------------7-------------2------------------------
---8-------------3-------------8-------------3------------------------
---7---//---//---2---//---//---7---//---//---2---//---//--------------
---0-------------0-------------0-------------0------------------------
----------------------------------------------------------------------
----------------------------------------------------------------------
G/D D G/D D

---7-------------2-------------5------------12------------------------
---8-------------3-------------6------------13------------------------
---7---//---//---2---//---//---5---//---//--12---//---//--------------
---0-------------0-------------0-------------0------------------------
----------------------------------------------------------------------
----------------------------------------------------------------------
G/D D F/D C/D

Slide Solo:
----------------------------------------------------------------------
--------12----12-\-10-/-12-\-10-/-12-\-10----10-\-------(7)-----------
---------------------------------------------------7----(7)-----------
---/12--------------------------------------------------(7)-----------
----------------------------------------------------------------------
----------------------------------------------------------------------

---/15---15-\-14-/-15-\-14-/-15-\-14-------/-17-----------------------
-------------------------------------/-15-----------------------------
----------------------------------------------------------------------
----------------------------------------------------------------------
----------------------------------------------------------------------
----------------------------------------------------------------------

----------------------------------------------------------------------
---------12---/-15---\-12------------------------tr./\/\/\/\/-----10--
---------------------------12--\--7---------7----10-\-9-/-10-\-9------
---/-12--------------------------------/-7----------------------------
----------------------------------------------------------------------
----------------------------------------------------------------------

----------------------------------------------------------------------
---tr./\/\/\/\/\/---------------------5----------------/-13-\-12---15-
---5-\-4-/-5-\-4-/-5-\-4-/-5-\-4-/-5--------/-7--------tr./\/\/\/-----
---------------------------------------------------/------------------
----------------------------------------------------------------------
----------------------------------------------------------------------

----------------------------------------------------------------------
----------------------------------------------------------------------
---/-10-\-7----7-\-5-/-7-\-5-/-10-----10-\-9-/-10--10-\-7-------------
----------------------------------------------------------0-/-7-/-12-/
----------------------------------------------------------------------
----------------------------------------------------------------------

Outro:
------------------------------------------7--10----------------10--12-
-----------------------------------7--10---------------10--12---------
-------------------------7--9--10-------------------11----------------
-------------------7--9-----------------------------------------------
----------7--8--9-----------------------------------------------------
---7--10--------------------------------------------------------------
Vamp over D Blues, include Alex's favorite Fly by Night Lead




Ваше мнение



Капча