From [email protected] Sun Jun 12 21:40:13 1994
Return-Path:
Received: from optima.CS.Arizona.EDU by mail.netcom.com (8.6.8.1/Netcom)
id VAA06592; Sun, 12 Jun 1994 21:40:12 -0700
Received: from caslon.CS.Arizona.EDU by optima.CS.Arizona.EDU (5.65c/15) via SMTP
id AA10620; Sun, 12 Jun 1994 21:39:55 MST
Received: ([email protected]) by caslon.CS.Arizona.EDU (8.6.7/8.6.4) id VAA23586 for [email protected]; Sun, 12 Jun 1994 21:39:53 -0700
Date: Sun, 12 Jun 1994 21:39:53 -0700
From: Anthony J Zimmermann
Message-Id:
To: [email protected]
Subject: Leave That Thing Alone TAB - RUSH
Status: RO
Leave That Thing Alone, off of _Counterparts_
Transcribed by Tony Zimmermann
----------------------------------------------------------------------
----------------------------------------------------------------------
---14-H-16--16--16--16-P-14--14--14--14-------------------------------
---14-------14--14--14---14--14--14--14-------------------------------
--(0)-----------------------------------------------------------------
----------------------------------------------------------------------
----12----------------------------------------------------------------
--------10--12--------------------------------------------------------
----------------12--10--9-----9--10-----------------------------------
-----------------------------------------10---------------------------
------------------------------------/12-------------------------------
----------------------------------------------------------------------
----12----------------------------------------------------------------
--------10--12--------------------------------------------------------
----------------12--10--9---------------------------------------------
----------------------------12--10------------------------------------
----------------------------------------------------------------------
----------------------------------------------------------------------
----------------------------------------------------------------------
----------------------------------------------------------------------
----------------------------------------------------------------------
----------------------------------------------------------------------
---0--0---3--3--5---5-5--7---7-7--------------------------------------
----------------------------------2--2-2--3--3----(4x)----5\----------
-------------------------------|--------------------------------------
-------------------------------|--------------------------------------
-------------------------------|--------------------------------------
------------2-P-0-----2-H-3----|--------------------------------------
---0--2--3---------3-----------|-----------2-P-0-----2-H-3------------
-------------------------------|--0--2--3---------3-------------------
-------------------------------7---------------7----------------------
---------7--10-------------------------7---10--------7--7-H-10-P-7----
--------------------7--9----7---------------------9----------------7--
--7--9-----------9------------------9--------------------------------9
----------------------------------------------------------------------
----------------------------------------------------------------------
-----------------------------------------------7----------------------
---------------------7------------------7-H-10---7--10--12--14-12-----
---------------------------9--7-----7-----------------------------14--
--(9)--7---7---7-H-9----9--------9------------------------------------
---------9------------------------------------------------------------
----------------------------------------------------------------------
--12------12----15------17--19--17-tr-19---21--19--21--22--21-(22)----
------15-----15-----17------------------------------------------F-----
----------------------------------------------------------------------
----------------------------------------------------------------------
----------------------------------------------------------------------
----------------------------------------------------------------------
--22--(24)--24--22--24-----22--24--22----(24)--24--22--24--22--24-----
--------F----------------------------------F--------------------------
----------------------------------------------------------------------
----------------------------------------------------------------------
----------------------------------------------------------------------
----------------------------------------------------------------------




Ваше мнение



Капча