h - Lakeside Park

From the CD 'Caress of Steel'
Written by Lee/Lifeson/Peart
Mercury/Polygram Records 822543-2

Thanks to WaveStudio, I was able to slow the song down and tab the
solo right. Now it's definitely correct. Thanks to Rich Soto
for some corrections.

Jimmy Pena - [email protected]

| = not a standard bar line; just used to separate music
~ = vibrato or held note
h = hammer on
p = pull off
s = slide
\ = slide down into infinity
o \_
o / repeat sign (always look for these!)

[Riff 1] - Freely

A G D A G A
e:-5---3-3--2-------------|--5---3-3--2-----7--9\-----------|
B:-5---3-3--3----2--------|--5---3-3--3-----8--10\----------|
G:-6---4-4--2----2--------|--6---4-4--2-----7--9\-----------|
D:-7---5-5--4----2-----2--|--7---5-5--4---------------------|
A:---------------------0--|---------------------------------|
E:------------------3--0--|---------------------------------|

[Riff 2] - Strum each chord; the final C has some pull-offs and whatnot

Dm7/A G C
e:---5--5~--5--5--5--6p5----|---3--3-3----0---------------|
B:---6------6------------6--|---3--3-3----1---------------|
G:---5------5---------------|---4--4-4----0---etc---------|
D:---7------7---------------|---5--5-5----2---------------|
A:--------------------------|-------------3---------------|
E:--------------------------|-----------------------------|

[Riff 3]

Fmaj7(addB/addG) Cmaj7
e:---------------------------------------|-----------------------------|
B:---------------------------------------|--------------------------2~-|
G:----2~----2~----2~-------0~----0~---0~-|----2~----2~----2~-----0--2~-|
D:-3~----3~-------------2~----2~---------|-3~----3~-----------2~----2~-|
A:---------------------------------------|--------------------------0~-|
E:---------------------------------------|-----------------------------|

[Riff 4] - Slow
D/A CaddD C Cmaj7 C/D
e:--2-2--2-2--3p2--0-3--0-3-------|--------------0--0--0-------2~-|
B:--3--3-3--3-3----3--3-3--3--3---|-----1-----0--1--0--1-------3~-|
G:--2----2----2----0----0-------0-|---0-----0----0--0--0-------2~-|
D:--0----0----0----2----2---------|--------------2--2--0---2---0~-|
A:--0----0----0----3----3---------|-3-----3------3--3----3---0----|
E:--------------------------------|-------------------------------|

Progression:

[Riff 1] x2

[Riff 1] x4 /w lyrics:

Midway hawkers calling, "Try your luck with me."
Merry-go-round wheezing the same old melody.
A thousand ten-cent wonders, who could ask for more.
A pocketful of silver, the key to heaven's door.

[Riff 2] x4 /w lyrics:

Lakeside Park, willows in the breeze.
Lakeside Park, so many memories.
Laughing rides, midway lights,
shining stars on summer nights.

[Riff 3] x1

[Riff 1] x2

[Riff 1] x4 /w lyrics:

Days of barefoot freedom, racing with the waves.
Nights of starlit secrets, crackling driftwood flames.
Drinking by the lighthouse, smoking on the pier,
Still, we saw the magic was fading every year.

[Guitar Solo] over [Riff 1] x4

e:--------------------------------------------------------12---------|
B:----------------------------7-8-10-------12-14-15-14-15------------|
G:---------------------6-7-9---------6~----------------------14------|
D:--7p5s2---------7-7------------------------------------------------|
A:---------4~--------------------------------------------------------|
E:-------------------------------------------------------------------|

e:-------------------------------------------------|-----------------|
B:-------------------------------------------------|-----------------|
G:-12-11-12--14--12p11-----11----------------------|-14-12p11--------|
D:---------------------14-----14p12--11-12-12s14~--|----------14-----|
A:-------------------------------------------------|-----------------|
E:-------------------------------------------------|-----------------|

e:-------------------------------------------------------------------|
B:-12-----------12---------------------------------------------------|
G:----14-12p11-----14-12p11-----9s6.-----6p4---4-6~-4h6p4------------|
D:------------14------------14---------------5------------5~---------|
A:-------------------------------------------------------------------|
E:-------------------------------------------------------------------|

e:------------------------------------------------------------12--15-|
B:------------13-15-15b17r15p13----13-15--15b17r15b17~~-15b17--------|
G:-14-14~--14-------------------14-----------------------------------|
D:-------------------------------------------------------------------|
A:-------------------------------------------------------------------|
E:-------------------------------------------------------------------|

e:-15b17-15-15b17-15b17~~\-------------------------------------------|
B:-------------------------------------------------------------------|
G:-------------------------------------------------------------------|
D:-------------------------------------------------------------------|
A:-------------------------------------------------------------------|
E:-------------------------------------------------------------------|

[Riff 2] x4 /w lyrics:

Lakeside Park, willows in the breeze.
Lakeside Park, so many memories.
Laughing rides, midway lights,
shining stars on summer nights.

[Riff 4] x2

[Riff 4] x2 /w lyrics:

Everyone would gather on the 24th of May,
sitting in the sand to watch the fireworks display.

Dancing fires on the beach, singing songs together;
Though it's just a memory, some mem'ries last forever.

[Riff 4] until end (repeat last section 3x)




Ваше мнение



Капча