High Water By: Rush
========================
w +w +w +w +w +w +w +h+Q e q q Q e Q q e q h+Q e H q
+-----+----+----+----+----+----+----+--------+---------+---5-5---+-------+-----+
|4:---|----|----|----|----|----|----|--------|---------|-------7-|-------|-----|
|4:-R-|----|----|----|----|----|----|------3-|-3-3-3-3-|-3-------|-3---3-|-3-3-|
|-----|----|----|----|----|----|----|--------|---------|---------|-------|-----|
+-----+----+----+----+----+----+----+--------+---------+---------+-------+-----+
h+Q e Q q e q h+Q e H q h+Q e Q q e q h+Q e Q q e q h+Q e
+-------+---------+-------+-----+-------+---5-5---+-------+---------+-------+
|-------|---7-7-4-|-------|---4-|-------|-------7-|-------|---------|-------|
|-------|---------|-------|-----|-3---3-|-3-------|-3---3-|-3-3-2-3-|-------|
|-5---5-|-5-------|-5---5-|-5---|-------|---------|-------|---------|-3---3-|
+-------+---------+-------+-----+-------+---------+-------+---------+-------+
e e e q e e e h+Q e e e e q e q Q e+h Q e+h Q e+h Q e+h Q e+h
+---------------+-------+-------------+-------+-------+-------+-------+-------+
|---5---5-------|-------|---3---3-----|-------|-------|-------|-------|-------|
|---------7-5-3-|-------|-------------|-------|-------|-------|-------|-------|
|-3---3---------|-1---0-|-1---1---1-1-|-------|-------|-3-5---|-3-5---|-------|
+---------------+-------+-------------+-3-5---+-3-5---+-------+-------+-3-5---+
Q e+h Q e+h Q e+h Q e+h Q e+h Q e+h Q e+h Q e+h Q e+h
+-------+-------+-------+-------+-------+-------+-------+-------+-------+
|-------|-------|-------|-------|-------|-------|-------|-------|-------|
|-------|-------|-------|-------|-------|-------|-------|-------|-------|
|-------|-3-5---|-3-5---|-------|-------|-3-5---|-3-5---|-------|-------|
+-3-5---+-------+-------+-3-5---+-3-5---+-------+-------+-3-5---+-3-5---+
Q e+h Q e+h Q e+h Q e+h Q e+h Q e+h w +w w +w Q e+h
+-------+-------+-------+-------+-------+-------+---+----+---+----+-------+
|-------|-------|-------|-------|-------|-------|---|----|---|----|-------|
|-------|-------|-------|-------|-------|-------|---|----|---|----|-------|
|-3-5---|-3-5---|-------|-------|-3-5---|-3-5---|-2-|----|-3-|----|---5---|
+-------+-------+-3-5---+-3-5---+-------+-------+---+----+---+----+-3-----+
Q Q q E E e+h E E Q s E E E e+h E E Q s s s s E E e+h E E Q s E
+-------+---------+-----------+---------+---------------+---------+-----------+
|-------|---------|-------5-7-|---------|-----------5-7-|---------|-------5-7-|
|-----R-|---------|-----------|---------|-------5-7-----|---------|-----------|
|-3-5---|-5-5-5---|-5-5-5-----|-5-5-5---|-5-5-5---------|-5-5-5---|-5-5-5-----|
+-------+---------+-----------+---------+---------------+---------+-----------+
E E e+h E E Q s s s s E E e+h E E Q s E E E e+h E E e+h w +w
+---------+---------------+---------+-----------+---------+---------+---+----+
|---------|-----------5-7-|---------|-------5-7-|---------|---------|---|----|
|---------|-------5-7-----|---------|-----------|---------|---------|---|----|
|-5-5-5---|-5-5-5---------|-5-5-5---|-5-5-5-----|-5-5-5---|-5-5-5---|-3-|----|
+---------+---------------+---------+-----------+---------+---------+---+----+
w +w s s s e s q e s s e s s s e s q e e e s s s e s q e s s e
+---+----+---------------------+-------------------+---------------------+
|---|----|---------------------|-------------------|-5-5---5---7---------|
|---|----|-5-5---5---7-------R-|-5-5---5---7-----R-|-----7---7---------R-|
|-2-|----|-----7---7---0-0-0---|-----7---7---0-3---|-------------5-5-5---|
+---+----+---------------------+-------------------+---------------------+
s s s e s q e e e s s s e s q e s s e s s s e s q e e e
+-------------------+---------------------+-------------------+
|-5-5---5---7-------|---------------------|-------------------|
|-----7---7-----3-R-|-5-5---5---7-------R-|-5-5---5---7-----R-|
|-------------5-----|-----7---7---0-0-0---|-----7---7---0-3---|
+-------------------+---------------------+-------------------+
s s s e s q e s s e s s s e s q e e e s s s e s q e s s e
+---------------------+-------------------+---------------------+
|-5-5---5---7---------|-5-5---5---7-------|---------------------|
|-----7---7---------R-|-----7---7-----3-R-|-5-5---5---7-------R-|
|-------------5-5-5---|-------------5-----|-----7---7---0-0-0---|
+---------------------+-------------------+---------------------+
s s s e s q e e e s s s e s q e s s e s s s e s q e e e
+-------------------+---------------------+-------------------+
|-------------------|-5-5---5---7---------|-5-5---5---7-------|
|-5-5---5---7-----R-|-----7---7---------R-|-----7---7-----3-R-|
|-----7---7---0-3---|-------------5-5-5---|-------------5-----|
+-------------------+---------------------+-------------------+
s s s e s q e s s e s s s e s q e e e s s s e s q e s s e
+---------------------+-------------------+---------------------+
|---------------------|-------------------|-5-5---5---7---------|
|-5-5---5---7-------R-|-5-5---5---7-----R-|-----7---7---------R-|
|-----7---7---0-0-0---|-----7---7---0-3---|-------------5-5-5---|
+---------------------+-------------------+---------------------+
s s s e s q e e e s s s e s q e s s e s s s e s q e e e
+-------------------+---------------------+-------------------+
|-5-5---5---7-------|---------------------|-------------------|
|-----7---7-----3-R-|-5-5---5---7-------R-|-5-5---5---7-----R-|
|-------------5-----|-----7---7---0-0-0---|-----7---7---0-3---|
+-------------------+---------------------+-------------------+
s s s e s q e s s e s s s e s q s s s s s s w +w w +w Q e+h
+---------------------+-------------------------+---+----+---+----+-------+
|-5-5---5---7---------|-5-5---5---7-5-6-7---5---|---|----|---|----|-------|
|-----7---7---------R-|-----7---7---------5---5-|---|----|---|----|-------|
|-------------5-5-5---|-------------------------|-2-|----|-3-|----|---5---|
+---------------------+-------------------------+---+----+---+----+-3-----+
Q Q q E E e+h E E Q s E E E e+h E E q s E e E E e+h E E q s s q
+-------+---------+-----------+---------+-------------+---------+-------------+
|-------|---------|-------5-7-|---------|-----------9-|---------|-------7-9-7-|
|-----R-|---------|-----------|---------|-------7-5---|---------|-------------|
|-3-5---|-5-5-5---|-5-5-5-----|-5-5-5---|-5-5-5-------|-5-5-5---|-5-5-5-------|
+-------+---------+-----------+---------+-------------+---------+-------------+
E E e+h E E e s s e e e E E e+h E E q s s e e E E e+h E E e+h w
+---------+-----------------+---------+-------------14-+---------+---------+---+
|---------|-----------------|---------|-------7-9-7----|---------|---------|---|
|---------|-------5-7-5-7-5-|---------|----------------|---------|---------|---|
|-5-5-5---|-5-5-5-----------|-5-5-5---|-5-5-5----------|-5-5-5---|-5-5-5---|-3-|
+---------+-----------------+---------+----------------+---------+---------+---+
+w w +w E e e h s s e e s q e e e E e e h s s e e s e e e e e
+----+---+----+---5-5-----+-----5-5-7-5-7---+---5-5-----+-----5-5-----------+
|----|---|----|-------7---|---------------5-|-------7---|---------7-5-7-5-7-|
|----|---|----|-3-------7-|-3-R-------------|-3-------7-|-3-R---------------|
|----|-2-|----|-----------|-----------------|-----------|-------------------|
+----+---+----+-----------+-----------------+-----------+-------------------+
E e s h e E e s q e e e E e s q e e e E e s e e e e e E e e h s
+-----------+---------------+---------------+-----------------+---5-5-----+
|---7-7-----|---7-7-9-7-9---|---7-7---------|---7-7-9-----7---|-------7---|
|-------9---|-------------7-|-------9-7-4-9-|---------R-9---5-|-3-------7-|
|-5-------9-|-5-------------|-5-------------|-5---------------|-----------|
+-----------+---------------+---------------+-----------------+-----------+
s e e s q e e e E e e q e E s e e s e e e e e E e s e e e q
+-----5-5-7-5-7---+---5-5-------+-----5-5-7-----5---+---------------+
|---------------5-|-------7-5-7-|-------------7---7-|---5-5-----5---|
|-3-R-------------|-3-----------|-3-R-------R-------|---------R---7-|
|-----------------|-------------|-------------------|-3-----3-------|
+-----------------+-------------+-------------------+---------------+
E e s e e e e e E e s e e e q E e s e e e e e s s s e s q e s s e
+-----------------+---------------+-----------------+---------------------+
|---5-5---5-------|---3-3---3-3---|---3-3---3-3-----|---------------------|
|-----------7-5-7-|-------------5-|-------------3-5-|-5-5---5---7-------R-|
|-3-----3---------|-1-----1-------|-1-----1---------|-----7---7---0-0-0---|
+-----------------+---------------+-----------------+---------------------+
s s s e s q e e e s s s e s q e s s e s s s e s q e e e
+-------------------+---------------------+-------------------+
|-------------------|-5-5---5---7---------|-5-5---5---7-------|
|-5-5---5---7-----R-|-----7---7---------R-|-----7---7-----3-R-|
|-----7---7---0-3---|-------------5-5-5---|-------------5-----|
+-------------------+---------------------+-------------------+
s s s e s q e s s e s s s e s q e e e s s s e s q e s s e
+---------------------+-------------------+---------------------+
|---------------------|-------------------|-5-5---5---7---------|
|-5-5---5---7-------R-|-5-5---5---7-----R-|-----7---7---------R-|
|-----7---7---0-0-0---|-----7---7---0-3---|-------------5-5-5---|
+---------------------+-------------------+---------------------+
s s s e s q e e e s s s e s q e s s e s s s e s q e e e
+-------------------+---------------------+-------------------+
|-5-5---5---7-------|---------------------|-------------------|
|-----7---7-----3-R-|-5-5---5---7-------R-|-5-5---5---7-----R-|
|-------------5-----|-----7---7---0-0-0---|-----7---7---0-3---|
+-------------------+---------------------+-------------------+
s s s e s q e s s e s s s e s q e e e s s s e s q e s s e
+---------------------+-------------------+---------------------+
|-5-5---5---7---------|-5-5---5---7-------|---------------------|
|-----7---7---------R-|-----7---7-----3-R-|-5-5---5---7-------R-|
|-------------5-5-5---|-------------5-----|-----7---7---0-0-0---|
+---------------------+-------------------+---------------------+
s s s e s q e e e s s s e s q e s s e s s s e s q e e e +w +w +w
+-------------------+---------------------+-------------------+----+----+----+
|-------------------|-5-5---5---7---------|-5-5---5---7-------|----|----|----|
|-5-5---5---7-----R-|-----7---7---------R-|-----7---7-----3-R-|----|----|----|
|-----7---7---0-3---|-------------5-5-5---|-------------5-----|----|----|----|
+-------------------+---------------------+-------------------+----+----+----+
+w E E e+h E E q e e e E E e+h E E q e e e E E e+h E E q e e e
+----+---------+-------5---5-+---------+-------5---5-+---------+-------5---5-+
|----|---------|-------------|---------|-------------|---------|-------------|
|----|-3-3-3---|-3-3-3---R---|-3-3-3---|-3-3-3---R---|-3-3-3---|-3-3-3---R---|
|----|---------|-------------|---------|-------------|---------|-------------|
+----+---------+-------------+---------+-------------+---------+-------------+
E E e+h E E q e e e E E e+h E E q e e e E E e+h E E q e e e
+---------+-------5---5-+---------+-------5---5-+---------+-------5---5-+
|---------|-------------|---------|-------------|---------|-------------|
|-3-3-3---|-3-3-3---R---|-3-3-3---|-3-3-3---R---|-3-3-3---|-3-3-3---R---|
|---------|-------------|---------|-------------|---------|-------------|
+---------+-------------+---------+-------------+---------+-------------+
E E e+h E E q e e e E E e+h E E q e e e E E q+s s e e
+---------+-------3---3-+---------+-------------+---------------+
|---------|-------------|---------|-------7---7-|---------------|
|-1-1-1---|-1-1-1---R---|---------|---------R---|-------------R-|
|---------|-------------|-5-5-5---|-5-5-5-------|-3-3-3---3-3---|
+---------+-------------+---------+-------------+---------------+
E E e e e e e w +w
+---------------+---+----+
|---------------|---|----|
|-------------3-|---|----|
|-3-3-3-3-3-5---|-1-|----|
+---------------+---+----+
==========================================================================
__ Created using the Bass Tab Creator
+|o | by Mario D'Alessio (motcid!marble!dalessio)
+|oo|+
+|oo|+ Notes: w = Whole h = Half q = Quarter
|| e = 8th s = 16th t = 32nd x = 64th
||
|| Capital durations are dotted notes
|| (equal to 1.5 times the duration value)
||
|| #
|| +----+ +----+
_ || _ |*--*+ = MEASURE |4:--| = TIME
_||_// |*--*+ REPEATS |4:--| SIGNATURES
| [] | +----+ (#=Num Repeats) +----+
| || |
/ [] + = TIE ^ = TRIPLET > = BEND
______/ H = HAMMER ON = SLIDE TO FRET R = Rest
P = PULL OFF X = SLIDE TO NOWHERE ~ = Trill



Ваше мнение



Капча