Heresy By: Rush
=================
e e e e e e e e e e e e e e q e e e e e e e e e e e e e e q
+-------------------+---------------+-----------------+---------------+
|4:-----------------|---------2-2-2-|-----R-----------|-------------2-|
|4:-----------------|---------------|-----------------|---------------|
+---0-0-0-0-0-0-0-0-+-0-0-0-0-------+-0-0---0-0-0-0-0-+-0-0-0-0-0-0---+
e e e e e e e e e e e e e e e e e e e e e e e e e e e e e e e e
+-----------------+-----------------+-----------------+-----------------+
|-----------------|-----------------|-----------------|-----------------|
|-2-2-2-2-2-2-2-2-|-2-2-2-2-2-2-2-4-|-----------------|-----------------|
+-----------------+-----------------+-5-5-5-5-5-5-5-5-+-5-5-5-5-5-5-4-5-+

Q e+h Q e+h Q e+h Q e+h Q e+h Q e+h Q e+h Q Q e e Q e+h
+-------+-------+-------+-------+-------+-------+-------+---------+-------+
|-------|-------|-------|-------|-------|-------|-------|---------|-------|
|-------|-------|-------|-------|-2-2---|-2-2---|-------|---------|-------|
+-0-0---+-0-0---+-0-0---+-0-0---+-------+-------+-5-5---+-5-5-4-5-+-0-0---+
Q e+h Q e+h Q Q q Q e+h Q Q q Q e+h Q Q e e w Q e e e e e
+-------+-------+-------+-------+-------+-------+---------+---+-------------+
|-------|-------|-----2-|-------|-----6-|-------|---------|---|-------------|
|-------|-------|-------|-2-2---|-2-2---|-------|---------|---|-------------|
+-0-0---+-0-0---+-0-0---+-------+-------+-5-5---+-5-5-4-5-+-0-+-0-0-0-0-4-5-+
w +h q q w +w q e Q e e q e Q q q e Q e e q e q e q
+---+--------+---+----+-----------+---------+-----------+-----------+
|---|--------|---|----|---R-------|---R---2-|---R-------|---R-----2-|
|-2-|----7-6-|---|----|-----------|---------|-----------|-----------|
+---+--------+-5-+----+-0---0-2-4-+-0---0---+-0---0-2-4-+-0---0-0---+
q e Q e e q e Q q q e q e e e q e q e q q e q e e e q e q e q
+-----------+---------+-------------+-----------+-------------+-----------+
|---R-------|---R-----|---R---------|---R-----2-|---R---------|---R-----2-|
|-2---2-4-6-|-2---2-4-|-------------|-----------|-------------|-----------|
+-----------+---------+-5---5-5-4-2-+-5---5-5---+-0---0-0-2-4-+-0---0-0---+
q e q e e e q e q e q q e Q e e q e q e q q e q e e e q e q e e e
+-------------+-----------+-----------+-----------+-------------+-------------+
|---R---------|---R-----2-|---R-------|---R-----6-|---R---------|---R---------|
|-------------|-----------|-2---2-4-6-|-2---2-2---|-------------|-------------|
+-0---0-0-2-4-+-0---0-0---+-----------+-----------+-5---5-5-4-2-+-5---5-5-6-7-+
q e q e e e q e q e s s e w +h q q w e s s E E E E
+-------------+---------------+---+--------+---+-------------------+
|---R---------|---R-----------|---|--------|---|-------------------|
|-------------|---------------|-2-|----7-6-|---|---16-16-12-11-7-4-|
+-0---0-0-2-4-+-0---0-0-2-4-5-+---+--------+-5-+-5-----------------+
e e e e e e e e e e e q e e e e e e e e e e e e e e e e e e e
+-----------------+---------------+-----------------+-----------------+
|---------R-------|---------------|---------R-------|-----------------|
|-----------------|-------------7-|-5-5-5-5---5-5---|-5-5-5-4-4-4-5-4-|
+-5-5-5-5---5-5-5-+-5-5-5-5-5-5---+---------------5-+-----------------+
q Q e e e Q q e e e e e e e e e e e e e e q e e s s q e e e e e e
+-----------+-----------+-----------------+-----------------+---------------+
|-----------|-----------|-----------------|-----------------|-------R-------|
|-----------|-----------|-----------------|-----------------|---------------|
+-7-7-7-7-5-+-7-7-7-5-7-+-3-3-3-3-3-3-3-2-+-3-3-3-5-5-7-5-7-+-5-5-5---5-5-4-+
Q e e e e e e e e e e e e e e e e q e e e Q q e e e Q q e e e
+-------------+-----------------+---------------+-----------+-----------+
|-------------|---------R-------|---------------|-----------|-----------|
|-----------7-|-5-5-5-5---5-5---|-5-5-5-4-4-5-4-|-2-2-2-2---|-2-2-2---2-|
+-5-4-5-5-4---+---------------5-+---------------+---------5-+-------5---+
e e e e e e e e q h q e e e e e e e e e e e e e e e e
+-----------------+-------+-----------------+-----------------+
|-----------------|---R---|---2-R-----------|---------------2-|
|-----------------|-----2-|-----------------|-----------------|
+-3-3-2-3-3-2-3-2-+-3-----+-0-----0-0-0-0-0-+-0-0-0-0-0-0-0---+
e e e e e e e e e e e e e e e e e e e e e e e e e e e e e e e e
+-----------------+-----------------+-----------------+-----------------+
|-----------------|---------------2-|-----------------|-----------------|
|-----------------|-----------------|-2-2-2-2-2-2-2-2-|-2-2-2-2-2-2-4-2-|
+-0-0-0-0-0-0-0-0-+-0-0-0-0-0-0-0---+-----------------+-----------------+
e e e e e e e e E s e e q q q e q e e e q e q e q q e q e e e
+-----------------+-------------+-------------+-----------+-------------+
|-----R-------7-7-|-----------2-|-------------|---------2-|-------------|
|-----------------|---------4---|---2---------|---2-------|---2---------|
+-5-5---5-5-5-----+-5-5-5-5-----+-0---0-0-2-4-+-0---0-0---+-0---0-0-2-4-+
q e q e q q e q e e e E s e q e q E s e q q e E s e q e q
+-----------+-------------+-------------+-------------+-------------+
|---------2-|---R---------|-------------|-------------|-----------2-|
|---2-------|-2---2-2-4-6-|-2-2---2-2---|-------------|-------------|
+-0---0-0---+-------------+-----4-----4-+-5-5-4-5-5-4-+-5-5-4-5-5---+
q e q e e e q e e e e q q e q e e e q e e e e q q e q e e e
+-------------+-------------+-------------+-------------+-------------+
|-------------|-------R---2-|-------------|-------R---2-|-------------|
|---2---------|---2---------|---2---------|---2---------|-2---2-2-4-6-|
+-0---0-0-2-4-+-0---0---0---+-0---0-0-2-4-+-0---0---0---+---4---------+
E s e q e q Q q e e e e e e e e e q q e q e e e q e q e e e w
+-----------1-+-----------+---------------+-------------+-------------+---+
|-------------|-----------|-------------2-|-------------|-------------|---|
|-2-2---2-2---|-----------|---------------|---2---------|---2---------|-2-|
+-----4-------+-5-5-5-4-2-+-5-5-4-5-5-5---+-0---0-0-2-4-+-0---0-0-2-4-+---+
+h q q w +e s s s s s s s s s s s s s s q Q q e Q e e e e e
+--------+---+--------------------------------------+---------+-------------+
|--------|---|--------------------------------------|---------|-------------|
|----7-6-|---|----16-16-14-14-12-12-9-9-7-7-4-4-2-2-|---------|-----------7-|
+--------+-5-+--------------------------------------+-5-5-5-5-+-5-4-5-4-5---+
e e e e e e e e e e e q e e e q Q q e Q q e e e q Q e e e
+-----------------+---------------+---------+-----------+-----------+
|-----------------|---------------|---------|-----------|-----------|
|-5-5-5-5-5-5-5---|-5-5-5-4-4-5-4-|-2-2-2---|-2-2-2---2-|-----------|
+---------------5-+---------------+-------5-+-------5---+-3-3-3-3-3-+
e e e e e e e e e e e e e e e e e e e e e e e e e e e q e e e
+-----------------+-----------------+-----------------+---------------+
|---5-5-----7---9-|-----7-----7---7-|-----------------|-----R---------|
|-----------------|-----------------|-----7-------7-9-|-5-5---5-5-5-4-|
+-3-----3-5---7---+-5-5---5-5---5---+-5-5---5-5-5-----+---------------+
e e e e e e e e q Q e e e Q q e e e e e e e e e e e q H
+-----------------+-----------+-----------+-----------------+-----+
|-----------------|-----------|-----------|-----------------|---R-|
|-5-5-5-4-4-4-5-4-|-2-2-2-2---|-2-2-2---2-|-----------------|-----|
+-----------------+---------5-+-------5---+-3-3-2-3-3-2-3-2-+-3---+
e e e e e e q e e e e e e q e e e e e e e e e e e e e e q Q q e e e
+---------------+---------------+-----------------+---------------+-----------+
|-----R-------2-|-----R---2---2-|-----R-----------|-------------2-|-----------|
|---------------|---------------|-----------------|---------------|-----------|
+-0-0---0-0-0---+-0-0---0---0---+-0-0---0-0-0-0-0-+-0-0-0-0-0-0---+-0-0-0-2-4-+
Q e+h Q q e e e Q e+h Q q e e e Q e+h Q q e e e Q e+h
+-------+-----------+-------+-----------+-------+-----------+-------+
|-------|-----------|-------|-----------|-------|-----------|-------|
|-------|-----------|-------|-----------|-------|-----------|-------|
+-0-0---+-0-0-0-2-4-+-0-0---+-0-0-0-2-4-+-0-0---+-0-0-0-2-4-+-0-0---+
Q q e e e Q Q q e e e q e e e e e e q e q e e e q e e e
+-----------+-------+---------------+-------------+---------------+
|-----------|-----4-|---------------|-----------6-|---------------|
|-----------|-------|-----2---------|-----2-------|-----2---------|
+-0-0-0-2-4-+-0-0---+-0-0---0-0-2-4-+-0-0---0-0---+-0-0---0-0-2-4-+
e e e e e e e e e e e q e e e e e e q e e e w +Q e h e e e e e Q
+-----------------+---------------+---------------+---+--------+-------------+
|---------2---2-4-|---------------|---------------|-6-|----4-2-|-4-2---2-4-2-|
|-----2-----2-----|-----2---------|-----2---------|---|--------|-----4-------|
+-0-0---0---------+-0-0---0-0-2-4-+-0-0---0-0-0-0-+---+--------+-------------+
+H q H e e w +H e e
+------+-------+---+--------+
|----6-|-6-----|-R-|--------|
|------|-------|---|--------|
+------+---2-4-+---+----2-4-+
==========================================================================
Created using the Bass Tab Creator
__ by Mario D'Alessio (motcid!marble!dalessio)
+|oo|+
+|oo|+ Notes: w = Whole h = Half q = Quarter
|| e = 8th s = 16th t = 32nd x = 64th
||
|| Capital durations are dotted notes
|| (equal to 1.5 times the duration value)
||
|| #
|| +----+ +----+
_ || _ |*--*+ = MEASURE |4:--| = TIME
_||_// |*--*+ REPEATS |4:--| SIGNATURES
| [] | +----+ (#=Num Repeats) +----+
| || |
/ [] + = TIE ^ = TRIPLET > = BEND
______/ H = HAMMER ON = SLIDE TO FRET R = Rest
P = PULL OFF X = SLIDE TO NOWHERE ~ = Trill




Ваше мнение



Капча