Subject: Rush
Song: Here Again
Album: Rush
Contains:
Intro
Verse
Chorus
Main Solo
Outro Solo
By: Janss L. Adams
With major contributions from Chris Aynesworth
Listen to the song for the timing. . .
Intro
Slight distortion
|--------------------------------------------------------------------
|-------------------------------------------------------------------
|-(4)-----4----------------------------2-------------------------4--
|-(4)-----4-------------2--0-----------2-------------------0-2---2--
|--2-----2----2-2--2--------4--2--0---0---0-0--0--0-2-4--------2--
|--------------------------------------------------------------0----
--------------------------------------------------------------------
--------------------------0--0-----0--0----------------------------
--------------------------2--2-----2--2--------4-------------------
--------------------2--------------------------4-----------2--0----
--------0-2-4-0-2--2---2--------2-------(2)-2--2---2-2--2-------4-
--0--0--------------------------------------------------------------
Little Dist.
--------------------------------------------------------------------
------------------------------------------------------------0--0---
--------2-------------------------4-------------------------2--2---
--------2-------------------0-2---2--------------------------------
-2--0---0---0-0--0--0-2-4--------2----------0-2-4-0-2--2-------2-
--------------------------------0-----0--0-------------------------
Verse (Upstrokes)
End Intro "Said I've played this song. . ."
---------|--x----x----x----x----x-----x------x-----x-|
--0--0---|-x----x----x----x----2-----x------x------x-|
--2--2---|-4----4----2----2----2----4------4------4-|
---------|-4----4----2----2----2----4------4------4-|
---------|-2----2----2----2----0----2--0-0-2--0-0-2-|
---------|-------------------------------------------|
Repeat Verse 3x
Repeat Intro once
Repeat verse 4x -I think Alex plays around with this chord below. . .
"Well you say you there. . ."
-------2-------
-----3----3----
---4--------4-
--2-----------
--------------
--------------
Chorus: Do two times. . .heavy dist.
Chord progression-listen for timing. . . (2x)
|--0----------------------------------5-->151515151515-151515151515-7------------------
--------------------4------4~---------2-4-------------------------
--------------------------------------------------------------------
--------------------------------------------------------------------
--------------------------------------------------------------------
_ _ _
-10-12--12!--10----10-12-10----10---------------_-----------------
----------------12-----------12---12--_---10-12!--10----12-10~----
--------------------------------------9-11-----------11------------
--------------------------------------------------------------------
--------------------------------------------------------------------
--------------------------------------------------------------------
x3
-------------_------------------_----------------------------------
--_--3-5-5-5!-3----5-5-3~-----3-6---6-5-3--_--------_-----_--3!--
-2-4------------4-----------------4--------4-2---4-4!-2---2-4-----
------------------------------------------------4--------4---------
--------------------------------------------------------------------
--------------------------------------------------------------------
-----------------_---10---------------------17---17---17---17------
----------_---10-12----12-12~-15-17-15-17!--17!---17!---17!-------
-4~(4)9------------------
-------------------------------10-7---7-->-11---11--------------11------------------
--------9----9-9~------------------------------------------------
-------------------------------------------------------------------
-------------------------------------------------------------------
x4 Grad. Release
-----10-12-10-12!-12!~(12!)-12!-12-10----------------|
--------------------------------------12!------------|
-----------------------------------------------117-10-10-12~-10--------------------------12-----
-2-4~---------------------------------------------------------------
---------------------------------------------------------------------
---------------------------------------------------------------------
---------------------------------------------------------------------
-----10---------------------------------------3---|
--------12-10------------_--3--5!--5-3-------3---|
--------------11--------2-4------------4-2---0---|
-----------------12~--------------------------0---|
----------------------------------------------2---|
----------------------------------------------3---|
Key:
slide up
< slide down
~ vibrato
! full bend
/ half bend
_ hammer on or pull off
Any questions or comments, write:
Janss-- [email protected]




Ваше мнение



Капча