h - I - Prelude
[Intro] - play first part 4 times
F#7/11 A9 Cmaj7
e:----0~---------0~------0~-----|---0----0-0----0-|---0--0----0--0---|
B:----0~---------0~------0~-----|---0--0---0--0---|---0----0--0----0-|
G:o---3~---------3~------3~----o|---6------6------|---0-------0------|
D:o---4~---------4~------4~----o|---7------7------|---2-------2------|
A:----4~---------4~------4~-----|---7------7------|---3-------3------|
E:----2~---------2~------2~-----|---5------5------|------------------|
e:---------------------------------|
B:---------1~---1~----1~-----------|
G:---2~----0~---2~----0~-----------|
D:---3~----2~---2~----2~-----------|
A:---3~----3----0~----3~-----------|
E:---1~----3~---1~----3~-----------|
e:----------------|-------------|-----------------|---------------------|
B:----------------|-------------|-----------------|---------------------|
G:----------------|-------------|-----------------|---------------------|
D:----------------|-------------|-----------------|---------------------|
A:-2~-----------5~|--2~---------|--5--------------|----5----------------|
E:-----2~--3/-----|------2~-3/--|-----5---6s1~----|-------5--6\-1-1-1-1-|
[Riff 1] [Riff 2a]
F#7/11 B11
e:--------0--------|---------0--------|--------0-------|-------0------|
B:------------0----|--------------0---|------------0---|-----------(0)|
G:o---------3-----o|o----------3-----o|o---------8----o|o--------8---o|
D:o---------------o|o----------------o|o--------------o|o------------o|
A:--4--4-----------|---4--4-----------|---9--9---------|--9--9--------|
E:--2--2-----------|---2--2-----------|---7--7---------|--7--7--------|
[Riff 2b]
A9 D6/9 D5
e:---------0-------|---------0-------|---------0------|---------------|
B:-------------0---|-------------(0)-|--------------0-|---------------|
G:o----------6----o|o----------6----o|o----------11--o|---------------|
D:o---------------o|o---------------o|o--------------o|---------------|
A:---7--7----------|---7--7----------|--12-12---------|--12--12--12---|
E:---5--5----------|---5--5----------|--10-10---------|--10--10--10---|
[Riff 3a] [Riff 3b]
e:--------------------|-----------------------------|
B:--------------------|-----------------------------|
G:--2--0--------------|--4--2--0--------------------|
D:--------4--2--0-----|-----------4--2--0-----------|
A:(12)-------------4--|-----------------------------|
E:(10)----------------|-----------------------------|
[Riff 4]
Gmaj7 F#7sus4
e:-----------|----------------|
B:--0--0--0--|---0--0--0------|
G:--0--0--0--|---4--4--4------|
D:--4--4--4--|---2--2--2------|
A:--2--2--2--|---4--4--4------|
E:--3--3--3--|---2--2--2--(3)-|
[Riff 5]
e:---------------------------|---------------------------------------|
B:---------------------------|------------------------2~-------------|
G:--------0-----------2------|---------0-----------------0~----------|
D:------4---4-------2---2----|-------4---4------2--------------------|
A:----2-----------4----------|-----2---------------------------------|
E:--3-----------2------------|---3-----------2-----2-----------------|
e:---------------------------|---------------------------------------|
B:---------------------------|------------------------2~-------------|
G:--------0-----------2------|---------0-----------------------------|
D:------4---4-------2---2----|-------4---4------2--------------------|
A:----2-----------4----------|-----2---------------------------------|
E:--3-----------2------------|---3-----------2----2------------------|
Progression:
[Intro] x1
[Riff 1] x1
[Riff 2a] x1
[Riff 1] x1
[Riff 2a] x1
[Riff 2b] x1
[Riff 3a] x1
[Riff 3b] x1
Alternate between [Riff 4] and [Riff 3b] -- 4 times
[Riff 5] x1
[Riff 4] x2
[Riff 3b] x1
[Riff 4] x1
[Riff 3b] x1
[Riff 4] x1
Mid section:
e:-----------------------------------------------------------0~-----|
B:------------------------------0~---------------------0-----0~-----|
G:----------------0~----------0----------0~----------0-------0~-----|
D:--------------2---2~------2----------2---2~------2---------2~-----|
A:------------3-----------3----------3-----------3-----------2~-----|
E:--3-5-3---1-----------1----------1-----------1-------------0~-----|
Harmonics part:
e:---------------------|----------------|--------------|
B:---------------------|----------------|--------------|
G:o-------------------o|----------------|--------------|
D:o-------------------o|------------|--------------|
A:---------------|-------------|--------|
E:---------------|----------|--------|
e:---------------------|----------------|--------------|
B:---------------------|----------------|--------------|
G:o-------------------o|----------------|--------------|
D:o-------------------o|------------|--------------|
A:---------------|-------------|--------|
E:---------------|----------|--------|
[bass enters]
e:---------------------|----------------|--------------|
B:---------------------|----------------|--------------|
G:o-------------------o|----------------|--------------|
D:o-------------------o|------------|--------------|
A:---------------|-------------|--------|
E:---------------|----------|--------|
e:---------------------|----------------|--------------|
B:---------------------|----------------|--------------|
G:o-------------------o|----------------|--------------|
D:o-------------------o|------------|--------------|
A:---------------|-------------|--------|
E:---------------|----------|--------|
[drums enter]
e:-----------------|--------------------|---------------------|
B:-----------------|--------------------|---------------------|
G:o---------------o|--------------------|---------------------|
D:o---------------o|--------------------|-----------------|
A:-----------|--------------|------------------|
E:-----------|--------------|---------------|
e:--------------------|------------------|-----------------|
B:--------------------|------------------|-----------------|
G:--------------------|------------------|-----------------|
D:--------------------|------------------|-----------------|
A:-----------|------------|--------------|
E:-----------------|------------|-----------|
Louder/faster part:
A5 B5 E A
e:------------------|---------------|--------------------------------|
B:------------------|---------------|---9-9-9-10-10-10-10-10-9--(0)--|
G:-2-2-2-2--4-4-4-4-|---------------|---9-9-9-9--9--9--9--9--9--(0)--|
D:-2-2-2-2--4-4-4-4-|-2-2-2-2-2-2---|---9-9-9-11-11-11-11-11-9--(0)--|
A:-0-0-0-0--2-2-2-2-|-4-2-4-5-4-2---|--------------------------------|
E:------------------|-------------0~|-0------------------------------|
D
e:-------------------------------------------------------------------|
B:--7--8-8~-8-8-8--7~-8--7-------------------------------------------|
G:--7--7-7~-7-7-7--7~-7--7-------------------------------------------|
D:--7--7-7~-7-7-7--7~-7--7-------------------------------------------|
A:----------------------------5--4-----------------------------------|
E:---------------------------------5--7.-----------------------------|
A A5 B5
e:-------------------------------------------------------------------|
B:--2--2---2---2--2--------------------------------------------------|
G:--2--2---2---2--2----2-2-2-2--4-4-4-4------------------------------|
D:--2--2---2---2--2----2-2-2-2--4-4-4-4----------------7--6----------|
A:--0--0---0---0--0----0-0-0-0--2-2-2-2-----4.---5.---------7\-------|
E:----------------------------------------------------------------0--|
[Riff 6] /w verses as below:
E A F# D A7 Bm A/C# A5 E
e:--0~----------------------------------------------------------0~---|
B:--0~-----2------------------------3---2---3-------------------0~---|
G:--1~-----2----3~--3-3-3-3-3-3-3---2---0---4--2--2--2-2--------1~---|
D:--2~-----2----4~--4-4-4-4-4-4-4---0---2---4--2--2--2-2--------2----|
A:--2~-----0----4~--4-4-4-4-4-4-4-----------2--4--4--0-0--------2----|
E:--0~----------2~--2-2-2-2-2-2-2-------------------------0~--0-0----|
A F# D A7 Bm A/C# A
e:-------------------------------------------------------------------|
B:---2-----------------------3---2---3----------2--2-----------------|
G:---2---3~--3-3-3-3-3-3-3---2---0---4---2--2---2--2-----------------|
D:---2---4~--4-4-4-4-4-4-4---0---2---4---2--2---2--2-----------------|
A:---0---4~--4-4-4-4-4-4-4-----------2---4--4---0--0-----------------|
E:-------2~--2-2-2-2-2-2-2-------------------------------------------|
E A F# D A7 Bm A/C# A5
When our weary world was young, the struggle of the Ancients first began.
E A F# D A7 Bm A/C# A A
The Gods of Love and Reason sought alone to rule the fate of man.
[Riff 7] x2 (shown below)
(notes in ()'s are overdubbed)
D E
e:------------------------(4)---------|
B:----------------------(5)-(5)-------|
G:o-------------------(4)--1--(4)----o|
D:o--------7~---2--------2-----------o|
A:---4-5-7----0---4-5--2--------------|
E:---------------------------4~--0~---|
[Riff 7] x8 w/ lyrics:
They battled through the ages, but still neither force would yield.
Their people were divided, ev'ry soul a battlefield, ev'ry soul a
battlefield.
G BaddC# F A9
e:--3~-3~----------------1~----1----0~-----0----|--3~----3--------------|
B:--3~-3~--7~-----7------1~------1--0~-------0--|--3~------3---7~--7--7-|
G:--4~-4~--8~------------2~---------6~----------|--4~----------8~--8--8-|
D:--5~-5~--11~------11---3~--3------7~--7-------|--5~--5-------11~-11-11|
A:--5~-5~--9~---9--------3~---------7~----------|--5~----------9~--9--9-|
E:--3~-3~--7-------------1~---------5~----------|--3~----------7~--7--7-|
Cmaj7
e:-------1~----1-----0~-----0------0~--0~-------------------------------|
B:--7----1~------1---0~-------0----0~----0~---------1~---1~---1~--------|
G:--8----2~----------6~------------0~----------2~---0~---2~---0~--------|
D:--11---3~--3-------7~--7---------2~----------3~---2~---2~---2~--------|
A:--9----3~----------7~------------3~----------3~---3~---0~---3~--------|
E:--7----1~----------5~------------------------1~---3~---1~---3~--------|
[Riff 1] x1
[Riff 2a] x1
Segue:
E
e:--0--0----0--0----|-0--0----0--0----|--------------------|---0~----|
B:--0----0--0----0--|-0----0--0----0--|------1~--1~--1-1-1-|---0~----|
G:--6-------6-------|-0-------0-------|--2~--0~--2~--0-0-0-|---1~----|
D:--7-------7-------|-2-------2-------|--3~--2~--2~--2-2-2-|---2~----|
A:--7-------7-------|-3-------3-------|--3~--3~--0~--3-3-3-|---2~----|
E:--5-------5-------|-----------------|--1~--3~--1~--3-3-3-|---0~----|




Ваше мнение



Капча