#----------------------------------PLEASE NOTE---------------------------------#
#This file is the author's own work and represents their interpretation of the #
#song. You may only use this file for private study, scholarship, or research. #
#------------------------------------------------------------------------------##
Subject: Hemispheres Prelude. Bass transcription.
By Charles Grogan and David Purnell

|------------|--------------|---------------|----------5-3-2-0---------------|
|.----------.|----2-2-2-2-2-|----2-2-2-2----|-----------------3-2-3-5-3-2-0--|
|.----------.|-0-0---0-0-0--|-0-0---0-0-0-2-|-3-3-2-3-3--------------------3-|
|--2---2--2--|--------------|---------------|----3---------------------------|

|--------------------------------------|-------------------|------------------
|--------------------------------0-0-0-|-----0-0-0---------|-0---3-3-3-0---0--
|----------------0-0-0-0-0-0-----------|-2--------2--------|--0-1-------0-1---
|-1-1-0-1-3-3-1-3-----------3-3-3------|--2-3------2-3-3-3-|------------------

----3--|----------------------------------------------4-3-4-|-----------------
-1-3-3-|--------------------------------------4-3-4---------|-----------------
-------|-------------------4-3-4-2-2--2-2--2-2-----2-2------|-----------------
-------|-2-2--2-2--2-2--2-2---------------------------------|-2-2--2-2--2-2---

--------------------------|-----------------------------------7--|-7-6-4------
----------------------4-4-|-------------------2-2-0-0--0-0-0-7-0-|.-----7-5-4-
----2-2--2-2--2-2--2-2-2--|-0-0--0-0--0-0--0-0-0-----------------|.-----------
-2-2----------------------|--------------------------------------|------------

----------------------|--7-6-4--------------------------|-7-6-4---------------
-5-5-5---4-2-4-2-4-2-.|.------7-5-4-5-5-5---4-2-4-2-0--.|------7-5-4----------
--7-7-7-0------------.|.-------------7-7-7-0---------4-.|--------------0-2----
----------------------|---------------------------------|-----------3-3---2---

--------------------------|-----------------------|--------------------------|
---------0-5-0-4-222-0----|---0-5-4-55-4-2-0------|---0-5-4-0-7-5-4-4-2-0----|
--0-2-2-3-------------4-2-|--2--------------4-2-0-|--2-------------------4-2-|
-2---3--------------------|-3---------------------|-3------------------------|

|-------------------------------|--7-6-4-------------------|------------------
|-----0-5-4-2-0---------0-5-0-4-|.------7-5-4-5-5-5---4-4-.|-5-7-5---10-9-10--
|--2-4---------4-2-0-2-4--------|.-------------7-7-7-0----.|------8-8---------
|-3-----------------3-----------|--------------------------|-------8----------

-9-10-12-14-12-10------------------|------------------------------------------
-----------------14-12-10----------|-------------------7-6----7-6----7-6------
-------------------------12-10-----|----5-4-7-7-55-4-------7-7----7-7---7-5-5-
------------------------------12-0-|-0-0---0--------0-0---7------7------------

---------|------------------------|-----------------------------|-------------
-7-6-7-9-|-7-6-----7-6-7-99-7-66--|-----------------------------|----7-7-6-7-9
--5------|----7-4-4-------------7-|-0-0-0-0-2-2-2-2-4-2-4-5-4-2-|-------7-----
---------|------------------------|-----------------------------|-0-0---------

--11-9-9-9--------------------------------7-6----|---------------------------|
----------12-11-11-9-7---7-7-67-6------7-6---7-9-|-7-6-----7-6-7-99-7-66-----|
----------------------------7--7-7-5-5-----------|----7-4-4-------------7----|
-0--------------------0-0------------------------|---------------------------|

|---------------------|------------------------------2------------------------
|---------------------|-7-6-------------------------2-4-2-0-------------------
|-0-0-0-0-2-2-2-2-4-5-|----7-----------------------4-------4-2-0-2------------
|---------------------|-----0-0-0-0-0-5-0-2-2-2-2-2---------------0-0-0-0-0-5-

------------------------------|------------------|--------------------|-------
-----------------4-2-0--------|------------------|.------------------.|----4--
------------0-2-4-----4-2-0-2-|-4-5---4-5--------|.-4-5-0-4-5-2-2----.|-4-5---
-0-2-2-2-2-2------------------|----4-0---4-4-4-0-|---------------4-0--|-------

------------------------------------------------2-1-2-0-0------|--------------
-7---6-------------------------------------2-1-2---------4-2-0-|-------5------
--7-7-7---------5-3-2-0-2-0---------------0--------------------|------5-5-2-2-
-------2-3-2-3-2-----------3-2-1-0-1-0-1-3---------------------|-3-2-3--------

-----------------2----------------------------------------------|-------------
----------------2-2---------------------------------------------|-----4-------
-0-------------0---0-2-3-2-3-2-----------0-0-0-0-0-0------------|---------2-2-
--3-1-0-1-0-1-3---------------3-2-1-1-3-3-----------3-3-3-3-3-3-|-2-2--2------

---------------2--2----2-2-2-------------5-3-2-0-----------------------------2
--------------2--2----2-2-2---------------------3-2-0-----------------0-2-3-0-
-2-2--2-2--0-0--0--0-0------0-2-3-3-2-3-3------------3-2-0-----------3--------
-----------------------------------3----------------------3-2-1-0-1-3---------

-7-5-4--| Listen to the recording to figure out the rhythm (too hard to
--------| notate it in Ascii)(too hard to notate at all). In a few places
--------| above there are numbers with no space between them. I did this
------0-| where there were fast triplets, otherwise the spacing has no
meaning. In a couple of spots in the song Geddy does some fast
16th notes in places (depending on how you notate it). The smallest division
in this transcription would be an 8th note then.

|-7-6-4---------------------------|
For example: |.-----7-5-4-5-5-5---4-2-4-2-4-2-.|
|.------------7-7-7-0^---^-------.|
|--------------------|---|--------|
| |
each 4 represents
two 16th notes.

Notice that he doesn't play the double notes each time this section repeats.
One final note, the vertical bars in the transcription represent dividers for
sections of the song that seemed logical to me. They're not meant to be
measures. Also any vertical line with two dots next to it means to repeat the
section. Again, listen to the recording to find out how many times to repeat.

Dave
------------------------------------------------------------------------------
Transcription by: Charles Grogan ([email protected])
David Purnell ([email protected])
Typed and edited by: David Purnell ([email protected])
-----
Explanation on used symbols:
| - A pair of these indicate a part of music, not the usuals bars.
: - Indicates that a part is to be repeated. This may be ommited, you should
hear it too.
_ - Indicates a hammer-on or pull-off (You should know which is appropriate)
> - Indicates a bend-up or down or a slide. With a bend, the note to bend to
is between '(' and ')'. Use the whammy for a downbend. With a slide, the
follow-up note is the one to be slid to.
! - Indicates vibrato.
^ - Indicates harmonics. Is printed below the note.
For corrections or questions on the tabs, contact the author. If no e-mail
address is included, contact Frank or Jason, addresses below.
For remarks, suggestions or additions on the tab 'archive', contact:
Frank or Jason
([email protected]) ([email protected])
HAPPY PLAYING!!




Ваше мнение



Капча