Hand Over Fist By: Rush
================================
w e e e e e e e e q e e e e e e e e e e e e e e e e e e e e e e
+-----+-----------------+---------------+-----------------+-----------------+
|4:-R-|-----------------|---------------|-----------------|-----------------|
|4:---|-----------------|---------------|-----------------|-3-3-3-3-3-2-3-2-|
+-----+-3-3-3-3-3-3-5-7-+-5-5-5-5-5-3-5-+-1-1-1-1-1-1-0-1-+-----------------+
e e e e e e e e q q e e e e q e e e e e e e e e e e e e e
+-----------------+-------------+---------------+-----------------+
|-----------------|-------------|---------------|-----------------|
|-----------------|-------------|---------------|-3-3-3-2-3-2-3-5-|
+-3-3-3-3-3-3-5-7-+-5-5-5-5-3-5-+-1-1-1-1-1-0-1-+-----------------+
q e e q e e e e q e e e e e e e e e e e e e e e e e e e e
+-------------+---------------+-----------------+-----------------+
|-------------|---------------|-----------------|-----------------|
|-------------|---------------|-----------------|-3-3-3-2-3-3-3-2-|
+-3-3-3-3-5-7-+-5-5-5-5-5-3-5-+-1-1-1-1-1-1-0-1-+-----------------+
e e e e e e e e e e e e e e e e w h+Q e w h+Q s s w h+Q e w
+-----------------+-----------------+---+-------+---+---------+---+-------+---+
|-----------------|-----------------|---|-------|---|---------|---|-------|---|
|-----------------|---------------7-|---|-3---3-|-5-|-5---5-7-|---|-3---3-|-5-|
+-0-0-0-0-0-0-0-0-+-0-0-0-0-0-0-0---+-0-+-------+---+---------+-0-+-------+---+
H q e e e e e e e e e e e q e e e e e e e e e e e e e e q e e e
+-----+-----------------+---------------+-----------------+---------------+
|-----|-----------------|---------------|-----------------|---------------|
|-5-5-|-----------------|-3-3-3-3-3-3-3-|-5-5-5-5-5-5-5-5-|-------------2-|
+-----+-0-0-0-0-0-0-0-0-+---------------+-----------------+-0-0-0-0-0-0---+
e e e e e e e e e e e q e e e e e e q e e e e e e e e e e e
+-----------------+---------------+---------------+-----------------+
|-----------------|---------------|---------------|-----------------|
|-3-3-3-3-3-3-3-3-|-5-5-5-5-5-5---|-5-5-5-5-5-5-5-|-5-5-5-5-5-5-5-5-|
+-----------------+-------------5-+---------------+-----------------+
e e e e e e e e e e e e e e e e e e e e e e e e q e e e e e e
+-----------------+-----------------+-----------------+---------------+
|-----------------|-----------------|-----------------|---------------|
|-----------------|-----------------|-----------------|-3-3-2-3-2-3-5-|
+-3-3-3-3-3-3-5-7-+-5-5-5-5-5-5-3-5-+-1-1-1-1-1-1-0-1-+---------------+
e e e e e e e e q e e e e e e e e e e e e e e e e e e e e e e
+-----------------+---------------+-----------------+-----------------+
|-----------------|---------------|-----------------|-----------------|
|-----------------|---------------|-----------------|-3-3-3-2-3-2-3-2-|
+-3-3-3-3-3-3-5-7-+-5-5-5-5-5-3-5-+-1-1-1-1-1-1-0-1-+-----------------+
e e e e e e e e e e e e e e e e e e e e e e e e
+-----------------+-----------------+-----------------+
|-----------------|-----------------|-----------------|
|-----------------|-----------------|-----------------|
+-3-3-3-3-3-3-5-7-+-5-5-5-5-5-5-3-5-+-1-1-1-1-1-1-0-1-+
e e e e s s s s s s s s q e e e e e s s e e e e e e e e w w e e H
+-------------------------+-----------------+-----------------+---+---+-------+
|-----------R---R---R---R-|-----------------|-----------------|---|---|-------|
|-3-3-3-3-3---2---3---2---|-----------------|-----------------|---|-3-|-5-5-5-|
+-------------------------+-0-0-0-0-0-0-0-0-+-0-0-0-0-0-0-0-0-+-0-+---+-------+
h+Q e w w e e e e e e e e e e e q e e e e e e e e e e e
+-------+---+---+-----------------+---------------+-----------------+
|-------|---|---|-----------------|---------------|-----------------|
|-------|-3-|-5-|-----------------|-3-3-3-3-3-3-3-|-5-5-5-5-5-5-5-5-|
+-0---0-+---+---+-0-0-0-0-0-0-0-0-+---------------+-----------------+
e Q e q e e e e e e e e e e e e q q e e e e q e e e e q q q e
+-----------+-----------------+-------------+---------------+-----------+
|-----------|---------------7-|-------------|-----R---------|-----------|
|-5-5-5-5-7-|-----------------|-3-3-3-3-3-3-|-5-5---5-5-5---|-5-5-5-5-5-|
+-----------+-0-0-0-0-0-0-0---+-------------+-------------5-+-----------+
+e e e e e e e e Q q e e e Q q e e e q e e e e e e q e q e e e
+------------------+-----------+-----------+---------------+-------------+
|----------R-------|-----------|-----------|---------------|-------------|
|----5-5-5---5-5---|-----------|-----------|---------------|-3-2-3-2-3---|
+----------------7-+-3-3-3-5-7-+-5-5-5-3-5-+-1-0-1-1-1-0-1-+-----------7-+
q e q e e e q e q e e e q e q e e e e e e e e e e e q e e e e e e
+-------------+-------------+-------------+-----------------+---------------+
|---R---------|---R---------|-------------|-R-------R-------|---R-----------|
|-------------|-------------|-------------|---3-3-2---3-3-5-|---------------|
+-3---3-3-5-7-+-5---5-5-3-5-+-1-0-1-1-0-1-+-----------------+-3---3-3-3-5-7-+
q e e e e e e e e e e e e e e e e e e e e e e Q Q e e e q Q e e
+---------------+-----------------+-----------------+---------+-----------+
|---R-----------|-----------------|-----R-----------|---------|-----5-7---|
|---------------|-----------------|-3-3---3-3-3-3-3-|-5-7-----|-3-3-----5-|
+-5---5-5-5-3-5-+-1-1-0-1-1-1-0-1-+-----------------+-----7-7-+-----------+
Q Q e e e q q e e e Q Q e e e q Q e e h+Q e Q e e e e e h+Q e
+---------+-------------+---------+-----------+-------+-------------+-------+
|---------|-------------|---2-----|-----5-7-7-|-5---3-|-3-------3-2-|-5---3-|
|-5-7-----|-3-3-----3---|-5-------|-3-3-------|-------|---3-3-3-----|-------|
+-----7-7-+-----3-3---3-+-----7-7-+-----------+-------+-------------+-------+
Q e e e q w w w h+Q e e Q e e e e e e e e e e e e q q e e e e
+-----------+---+---+---+-------+-------------+-----------------+-------------+
|-3---------|---|---|---|-------|-----R-------|---------R-------|-------------|
|---3-3-3-3-|---|---|---|-3---3-|-5-5---5-5-5-|-7-7-7-7---7-7-7-|-------------|
+-----------+-3-+-5-+-1-+-------+-------------+-----------------+-3-3-3-3-2-3-+
e e e e e e e e e e e e e e e e e e e e e e e e q q e e e e
+-----------------+-----------------+-----------------+-------------+
|-------R---------|-------R---------|-------R---------|-------------|
|-----------------|-----------------|-3-3-3---3-2-3-5-|-------------|
+-5-5-5---5-5-3-5-+-1-1-1---1-1-0-1-+-----------------+-3-3-3-3-2-3-+
e e e e e e e e e e e e e e e e e e e e e e e e e e e e e e e e
+-----------------+-----------------+-----------------+-----------------+
|-------R---------|-------R---------|-------R---------|-----R-------R---|
|-----------------|-----------------|-3-3-3---3-2-3-2-|-----------------|
+-5-5-5---5-5-3-5-+-1-1-1---1-1-0-1-+-----------------+-3-3---3-3-3---3-+
e e e e e e e e e e e e e e e e e e e e e e e e Q e e e e e
+-----------------+-----------------+-----------------+-------------+
|-----R---R-------|-----R---R-------|-----R---R-------|-----R-------|
|-----------------|-----------------|-3-3---3---2-3-5-|-------------|
+-5-5---5---5-3-5-+-1-1---1---1-0-1-+-----------------+-3-3---3-2-3-+
e e e e e e e e e e e e e e e e e e e e e e e e e e e e e e e e
+-----------------+-----------------+-----------------+-----------------+
|-----R---R-------|-----R---R-------|-R---------------|-----R---R---R---|
|-----------------|-----------------|---3-3-2-3-5-7-5-|-----------------|
+-5-5---5---5-3-5-+-1-1---1---1-0-1-+-----------------+-3-3---3---3---3-+
e e e e e e e e e e e e e e e e s s s s E e s s s e e e e e e e e e e
+-----------------+-----------------+-----------------------+-----------------+
|-----R-----------|-----R---R-------|-R-3-2-0-2-3-3-2-0---0-|-----R---R---R---|
|-----------------|-----------------|-------------------3---|-----------------|
+-5-5---5-5-7-5-7-+-1-1---1---1-0-1-+-----------------------+-3-3---3---3---3-+
e e e e e e e e e e e e e e e e e e e e e e e e e e e e e e e e
+-----------------+-----------------+-----------------+-----------------+
|-----R---R-------|-----R---R-------|-R---------------|-----R---R---R---|
|-----------------|-----------------|---3-3-2-3-2-3-2-|-----------------|
+-5-5---5---5-3-5-+-1-1---1---1-0-1-+-----------------+-3-3---3---3---3-+
e e e e e e e e e e e e e e e e s s s s s s s s s s s s q
+-----------------+-----------------+---------------------------+
|-----R---R-------|-----R---R-------|-R-3-2-0-2-0-------0-2-3-5-|
|-----------------|-----------------|-------------3-2-3---------|
+-5-5---5---5-3-5-+-1-1---1---1-0-1-+---------------------------+
e e e e e e e e e e e e e e e e e e e e e e e e e e e e e e e e
+-----------------+-----------------+-----------------+-----------------+
|-----R-----------|-----R-----------|-----R-----------|-R---------------|
|-----------------|-----------------|-----------------|---3-3-2-3-5-7-5-|
+-3-3---3-3-3-2-3-+-5-5---5-5-5-3-5-+-1-1---1-1-1-0-1-+-----------------+
e e e e e e e e e e e q e e e e e e e e e e e e e e e e e e e
+-----------------+---------------+-----------------+-----------------+
|-----R-----------|---------------|-----R-----------|-----------------|
|-----------------|---------------|-----------------|-3-2-3-2-3-5-7-5-|
+-3-3---3-3-3-2-3-+-5-5-7-5-5-7-5-+-1-1---1-1-1-0-1-+-----------------+
==========================================================================
Created using the Bass Tab Creator
__ by Mario D'Alessio (motcid!marble!dalessio)
+|oo|+
+|oo|+ Notes: w = Whole h = Half q = Quarter
|| e = 8th s = 16th t = 32nd x = 64th
||
|| Capital durations are dotted notes
|| (equal to 1.5 times the duration value)
||
|| #
|| +----+ +----+
_ || _ |*--*+ = MEASURE |4:--| = TIME
_||_// |*--*+ REPEATS |4:--| SIGNATURES
| [] | +----+ (#=Num Repeats) +----+
| || |
/ [] + = TIE ^ = TRIPLET > = BEND
______/ H = HAMMER ON = SLIDE TO FRET R = Rest
P = PULL OFF X = SLIDE TO NOWHERE ~ = Trill




Ваше мнение



Капча