Freewill
by Rush
[intro]
-------------------------------------------------------------------------------
-6----5----3-------------------------------------------------------------------
----------------5----4----2--------------5----4----2---------------------------
-------------------------------5----3-------------------5----3----2------------
-----------------------------------------------------------------------5----3\-
-------------------------------------------------------------------------------
riff A
-----------------------------------------------------
-----------------------------------------------------
--------------------------------------------------0--
--------------------------------------2--0-----------
---------3-----2--0---------------3----------2>3-----
--1----1--------------3----1--1----------------------
riff B
--------3--3----8--8----7---5---------3--3----5--5---5---8--------
-1/3----3--3----8--8----8---6----1----3--3----6--6----6--8--10\---
-2/4----4--4----9--9----7---5----2----4--4----5--5----5--9--7\----
------------------------------------------------------------0-----
------------------------------------------------------------------
------------------------------------------------------------------
riff C
---------------------------------------------
---------------------------------------------
---------------------------------------------
-----------------------------2--0-----0--2---
--------3--2--0-----------3--------3---------
--1--1-----------3--1--1---------------------
Pre-Chorus
----0-------------------------3---------------0--------------2--2--3--2-------
-------3-------------------------6---------------3-----------3--3--3--3--3>0--
-2--------2--------2/5-----5--------5---------------2--------2--2--2--2--2>0--
-0--------------0-------3--3---------------------------0-----0--0--0--0-------
-2-----------1----------3--------------3>0>2--------------1-------------------
------------------------------------------------------------------------------
Chorus
You can choose.....
--------------------------------------5-------------
--------------------------------------2--2--5---2---
--------7-----------------4-----4--2--2--2--2---2---
-----7-----------2-----4--------2--0--2--2--2---2---
--5--------4--0-----2--------0--2--0--0--0--0---0---
--------------------------------0--2----------------
If you choose...
-----------------------------------------
--------------------------------3--3--2--
--------7-----------4--------2--0--2--2--
-----7-----------4--------2-----0--0--2--
--5--------4--2--------0--------------0--
--------------------------------3--2-----
You can choose ...
------------------------------------------------------
-----------------------------------5--5----5--5----5--
--------7-----------------4--4--2--2--2----2--2----2--
-----7-----------2-----4-----2--0--2--2----2--2----2--
--5--------4--0-----2--------2--0--0--0----0--0----0--
-----------------------------0--2---------------------
I will choose a path..... v-- first time only.
--------------------------------3------2---
--------------------------------3--2---3---
--------7-----------4--------2--0--2---2---
-----7-----------4--------2-----0--2---0---
--5--------4--2--------0-----------0-------
--------------------------------3----------
bridge
---------------------------------------------------------------
-----------------------------------------------------3---------
--------------------------------------3-----------------5--3\--
--------7--5--4--------5--3--2-----------5--3--5--5------------
--5--5-----------3--3-----------5--5---------------------------
---------------------------------------------------------------
---------------------------------------------------------------------
---------------------------------------------------------------------
--10--9--7-------------------12vvvvvvvvvvvvvvvvvvvvvvvvvvvvvvvvv-----
------------10--9--7-------------------------------------------------
----------------------10--8------------------------------------------
---------------------------------------------------------------------
solo
v-p.h. pull up on bar for these notes with the /
--------------------------------------------------------------
--15----------------------------------------------------------
---0--0/--0/--"12"/--0/--"12"/--0/\--13>12>10------12vvvvvvvv-
-----------------------------------------------12-------------
--------------------------------------------------------------
--------------------------------------------------------------
-----------------10--------------------------------------------------------
--10--12--13>10----------10--12------13--15vvvvv--13--15vvvvv--13--15>(17)-
---------------------12----------10----------------------------------------
---------------------------------------------------------------------------
---------------------------------------------------------------------------
---------------------------------------------------------------------------
-------------------------------------15--13>15>13--12--13>15>13-----------
--15--13vvvvvv--15--15>(17)--15--13------------------------------13vvvvv--
--------------------------------------------------------------------------
--------------------------------------------------------------------------
--------------------------------------------------------------------------
--------------------------------------------------------------------------
-----------------------------------------------------------------
--12--13--12-----------------------------------------------------
--------------12>(13)--12>14>12>(13)>0===>4>(5)====>4>0/\/\/\----
-----------------------------------------------------------------
-----------------------------------------------------------------
-----------------------------------------------------------------
--16>15>13------13--17--15>13-----------13--13--------------15>13------
------------15-----------------16>(18)----------13--13--15---------15--
-----------------------------------------------------------------------
-----------------------------------------------------------------------
-----------------------------------------------------------------------
-----------------------------------------------------------------------
--13--17--17--15--13--------------------------------13--17--15---------------
----------------------17--17--13>15--18--18>12--15--------------12--17>13\10-
-----------------------------------------------------------------------------
-----------------------------------------------------------------------------
-----------------------------------------------------------------------------
-----------------------------------------------------------------------------
----------10>13>10--10---------------------------------------------
--10--13----------------13--10--10------12-------------------------
------------------------------------12------0--9\7---5-----2>0-----
-----------------------------------------------7\5---2--0-------4--
-------------------------------------------------------------------
-------------------------------------------------------------------
---------------------------------------------------------------------------
---------------------------------------------------------------------------
--0----------5-----------2>0-----0>2>0--4--2--2--0--0--4--2--0--2--4--5--5-
-----0>2--2-----0--2--3-------3--------------------------------------------
---------------------------------------------------------------------------
---------------------------------------------------------------------------
----------------------------------------------------------------------
----------------------------------------------------------------------
--4--5--7--7--5--7--7--9--9-----9--7--9--10--10--9--10/12--10--10--12-
-----------------------------9----------------------------------------
----------------------------------------------------------------------
----------------------------------------------------------------------
----------------13--13--14--10----------12-------------------------------
--10>12>10--12------------------13--13------13\-------8-------13--13--13-
-------------------------------------------------5/7--7--/12--12--12--12-
-------------------------------------------------7/9--9--/14--14--14--14-
-------------------------------------------------------------------------
-------------------------------------------------------------------------
-----------------10--13>10--10---------10>13--10--------------10--13--10-
--0--8--8\6--6/-----------------13>10-------------13--10-----------------
-----7--7\5--5/-------------------------------------------10-------------
--------8\7--7/----------------------------------------------------------
-------------------------------------------------------------------------
-------------------------------------------------------------------------
------10--13>(15)--13vvvvvv\--------------------------------------0--20-
--12-------------------------------8-------13--13--13--0--12\10/--0-----
------------------------------5/7--7--/12--12--12--12-----12\10/--------
------------------------------7/9--9--/14--14--14--14-------------------
------------------------------------------------------------------------
------------------------------------------------------------------------
--20--20>(22)--20>(22)vvvvvv--17--17--20--20>(21)--20>(22)--22-
---------------------------------------------------------------
---------------------------------------------------------------
---------------------------------------------------------------
---------------------------------------------------------------
---------------------------------------------------------------
------------------------------------------------------------------------
-------8-------13--13--13--0--12-----0--------13>(15)--13>(15)vvvvvvvv--
--5/7--7--/12--12--12--12-----12--0-----0--0----------------------------
--7/9--9--/14--14--14--14-----------------------------------------------
------------------------------------------------------------------------
------------------------------------------------------------------------
-------------------10--------------------------------------------------
--13--10--13>(14)------12--10>12>10\-------8-------13--13--13--0--12\--
--------------------------------------5/7--7--/12--12--12--12-----12\--
--------------------------------------7/9--9--/14--14--14--14----------
-----------------------------------------------------------------------
-----------------------------------------------------------------------
----------12-----13--10--------------10------10-------------------------
------10--12-------------13--10----------13------13--10-----------------
------10------0------------------13----------------------10>12>10--9--9-
--10--------------------------------------------------------------------
------------------------------------------------------------------------
------------------------------------------------------------------------
---------------------------------------------------------
---------------------------------------------------------
--9--7--9--6--6--7--4--5>4\2>0--10--9--7-----------------
------------------------------------------10--9--7-------
----------------------------------------------------10\--
---------------------------------------------------------
outro
--------------------------------------------------------------
-----------------------------------------------------3--------
--------------------------------------3-----------------5--3/-
--------7--5--4--------5--3--2-----------5--3--5--5-----------
--5--5-----------3--3-----------5--5--------------------------
--------------------------------------------------------------
----------------------------------------------------------3--
----------------------------------------------------------3--
--10--9--7------------------------------------------------0--
------------10--9--7---------10--9--7---------------------0--
----------------------10--8------------10--8--7--------------
-------------------------------------------------10--8\---3--

[intro]
[riff A]
[riff B] X 2
[riff C]
There are those who think that life has nothing left to chance. A
[riff A]
host of holy horrors to direct our aimless dance.
[riff A]
[riff C]
[Pre-Chorus] X 2
[Chorus]
[riff A]
[riff B]
[riff C]
There are those who think that they've been delt a losing hand. The
[riff A]
cards were stacked against them, they were born in lotus land.
[riff A]
[riff C]
[Pre-Chorus] X 2
[Chorus]
[bridge]
[solo]
[Pre-Chorus] X 3
[Chorus]
[outro]




Ваше мнение



Капча