Freewill By: Rush
========================
e h Q e h Q W +w+H e e e q e q q q e e e q e q q e e q
+---------+-------+-----+--------+-------------------+-----------------------+
|4:-3-R-3-|---R---|6:---|7:------|6:---R-------------|7:---R-------2-------5-|
|4:-------|-3---3-|4:---|4:------|4:-------3-3-2-----|4:-------3-3---5-2-3---|
+---------+-------+---1-+--------+---1---1-------5-3-+---1---1---------------+
e e e q e q q q e e e q e q q e e q e e e Q q q q
+-------------------+-----------------------+-----------------+
|6:---R-------------|7:---R-------2-------5-|6:---R-----------|
|4:-------3-3-2-----|4:-------3-3---5-2-3---|4:-------3-2-----|
+---1---1-------5-3-+---1---1---------------+---1---1-----5-3-+
e e e q e q q q q q e e e Q q q q e e e q e q q e e q
+-----------------------+-----------------+-----------------------+
|8:---R-------2-------2-|6:---R-----------|7:---R-------2-------5-|
|4:-------3-3---5-3-5---|4:-------3-2-----|4:-------3-3---5-2-3---|
+---1---1---------------+---1---1-----5-3-+---1---1---------------+
e e e q e q q q e e e q e q e e e e q e e e q e q q q
+-------------------+-------------------------+-------------------+
|6:---R-------------|7:---R-------2---------5-|6:---R-------------|
|4:-------3-3-2-----|4:-------3-3---5-5-2-3---|4:-------3-3-2-----|
+---1---1-------5-3-+---1---1-----------------+---1---1-------5-3-+
e e e q e q q q q q e e q e q e e e q e q e e e q e q e
+-----------------------+---------------+-------------+-------------+
|8:---R-------2-------2-|4:---R---R-----|---R---R-----|-3-R-3-R-3---|
|4:-------3-3---5-3-5---|4:-2---2---2---|-1---1---1---|-----------2-|
+---1---1---------------+-------------2-+-----------3-+-------------+
e e q e q e e e q e q e e e q e q e Q Q q +e e e e e e e e
+-------------+-------------+-------------+-----7-+------------------+
|---R---R-----|---R---R-----|---R---R-----|---7---|----7-R-7---7-----|
|-3---3---3---|-2---2---2---|-1---1---1---|-5-----|----------5---5---|
+-----------3-+-----------2-+-----------3-+-------+----------------5-+
e e q e q e e e q e q e e e e e e q e e e e e e q e e e e q q e
+-------------+-------------+---------------+---------------+-------------+
|---R---R-----|---R---R-----|-3-R-3-3-R-3---|---R-----R-----|-------R-----|
|-2---2---2---|-1---1---1---|-------------2-|-3---3-3---3---|-2-2-2---2---|
+-----------2-+-----------3-+---------------+-------------3-+-----------2-+
e e q e q e Q q e q e e q e e q Q e+h Q e+h Q e e e q
+-------------+-------7-+-----7-------+-7-6---+-------+-----------+
|---R---R-----|---7-----|-7-7---7-7---|-------|-7-9---|-----------|
|-1---1---1---|-5---5---|-----------5-|-------|-------|-7-9-9-7---|
+-----------3-+---------+-------------+-------+-------+---------5-+
+e e e e e e Q e+h Q e e e e e Q q e q e e s s s s e e
+----------------+---7-6---+-------------+---------+-------------------+
|3:----R-7-R-7-R-|4:-------|-9-7-R-7---7-|-5-4-7---|3:-R-7-7-7-----7-R-|
|4:--------------|4:-------|---------7---|---------|4:---------7-7-----|
+----------------+---------+-------------+-------5-+-------------------+
Q e+h Q e+h Q e e e q +e e e e e e Q e+h Q e e e e e Q e h
+---7-6---+-------+-----------+----------------+---7-6---+-------------+-------+
|4:-------|-7-9---|-----------|3:----R-7-R-7-R-|4:-------|-9-7-R-7---7-|-5---R-|
|4:-------|-------|-7-9-9-7---|4:--------------|4:-------|---------7---|-------|
+---------+-------+---------5-+----------------+---------+-------------+---5---+
w e e e Q q q q e e e q e q q e e q e e e q e q q q
+---+-----------------+-----------------------+-------------------+
|---|6:---R-----------|7:---R-------2-------5-|6:---R-------------|
|-5-|4:-------3-2-----|4:-------3-3---5-2-3---|4:-------3-3-2-----|
+---+---1---1-----5-3-+---1---1---------------+---1---1-------5-3-+
e e e q e q e e e e q e e e Q q q q e e e q e q q e^e^e^q
+-------------------------+-----------------+-------------------------+
|7:---R-------2---------5-|6:---R-----------|7:---R-------2---------5-|
|4:-------3-3---5-5-2-3---|4:-------3-2-----|4:-------3-3---5-2-3-5---|
+---1---1-----------------+---1---1-----5-3-+---1---1-----------------+
e e e Q q q q e e e Q q q q q q e e e Q q q q
+-----------------+---------------------+-----------------+
|6:---R-----------|8:---R-----2-------2-|6:---R-----------|
|4:-------3-2-----|4:-------3---5-3-5---|4:-------3-2-----|
+---1---1-----5-3-+---1---1-------------+---1---1-----5-3-+
e e e Q q q e e q e e e q e q q q e e e q e q q e e e e
+---------------------+-------------------+-------------------------+
|7:---R-----2-------5-|6:---R-------------|7:-----------2-------5-5-|
|4:-------3---5-2-3---|4:-------3-3-2-----|4:-------3-3---5-2-3-----|
+---1---1-------------+---1---1-------5-3-+---1-1-1-----------------+
e e e q e q q q e e e q e q q q q q e e q e q e e e q e q e
+-------------------+-----------------------+---------------+-------------+
|6:---R-------------|8:---R-------2-------2-|4:---R---R-----|---R---R-----|
|4:-------3-3-2-----|4:-------3-3---5-3-5---|4:-2---2---2---|-1---1---1---|
+---1---1-------5-3-+---1---1---------------+-------------2-+-----------3-+
e e e e e q e e e q e q e e e q e q e e e q e q e Q q e e e
+---------------+-------------+-------------+-------------+-------7---+
|-3-R-3-3-R-3---|---R---R-----|---R---R-----|---R---R-----|---7-----7-|
|-------------2-|-3---3---3---|-2---2---2---|-1---1---1---|-5---5-----|
+---------------+-----------3-+-----------2-+-----------3-+-----------+
e e e e e e e e e e q e q e e e q e q e e e q e q e e e e e e q e
+-----7-----------+-------------+-------------+-------------+---------------+
|-R-7---7-R-7-----|---R---R-----|---R---R-----|-3-R-3-R-3---|-------R-------|
|-------------5-7-|-2---2---2---|-1---1---1---|-----------2-|-3-3-3---3-3---|
+-----------------+-----------2-+-----------3-+-------------+-------------3-+
e e q e q e e e q e q e q e e e e e e +e e e s s e e e e Q e+h
+-------------+-------------+-----------7-7-+----------------7---+-7-6---+
|---R---R-----|---R---R-----|-----7---------|------R---7---R---R-|-------|
|-2---2---2---|-1---1---1---|-5-5---5-5-----|----5---5---5-------|-------|
+-----------2-+-----------3-+---------------+--------------------+-------+
Q e+h Q q e q +e e e e e e Q e+h Q e e e e e Q q e q
+-------+---------+----------------+---7-6---+-------------+---------+
|-7-9---|---------|3:------7-R-7-R-|4:-------|-9-7-R-7---7-|-5-4-7---|
|-------|-7-9-7---|4:--------------|4:-------|---------7---|---------|
+-------+-------5-+------5---------+---------+-------------+-------5-+
s s s s s s s s e^e^e^ Q e+h Q e e e e e Q q e q e e e e e e
+-------------------------+---7-6---+-------------+---------+---------------+
|3:-7-7-5-5-7-7-5-5-------|4:-------|-7-9-R-9-R-9-|-----7---|3:-R---7-R-7-R-|
|4:-----------------5-4---|4:-------|-------------|-7-9-----|4:-------------|
+-----------------------5-+---------+-------------+-------5-+-----5---------+
Q e+h Q q e e e e e e e h e e e Q e e e e e e e Q q q
+---7-6---+-----------+-----------+-------------------+-------------+
|4:-------|-9-7-5-4---|---------R-|5:---R---7-5-R-4-R-|---R---------|
|4:-------|---------7-|-----------|4:-5---5-----------|-------3-1-0-|
+---------+-----------+-3-3-3-5---+-------------------+-1---1-------+
e e e Q q q e e e Q q q e e e e e e e e W +w+q q
+-------------+-------3-1-0-+-------------------+------+--------+
|---R---3-1-0-|-1-R-1-------|4:-3-2-0-----------|12:---|------9-|
|-1---1-------|-------------|4:-------3-2-0-----| 8:---|--------|
+-------------+-------------+---------------3-1-+----3-+--------+
e e e e e e e e e e e e e e e e e e e e e e e e e e e e e e e e e e e e
+-------------------------+-------------------------+-------------------------+
|-0-R-0-R-0---0---------3-|-0-R-0-R-0---0-2-3-2-0---|---R---R-----------------|
|-----------0-------------|-----------0-----------3-|-----------------0-1-0---|
+---------------0-3-4-5---+-------------------------+-1---1---1-0-1-3-------3-+
e e e e e e e s s e e e e e e e e e e e s s e e e e
+---------------3-3-1-0-----+---------------------------+
|-------3---3-1---------3-1-|-0-R-0-------0-3-3-0-3-----|
|-1-1-1---1-----------------|-------0-3-4-----------0-3-|
+---------------------------+---------------------------+
e e e e e e e e e e e e e e e e e e e e e e e e
+-------------------------+-------------------------+
|-----3-2-5-3-2-0---------|---R---R-----------------|
|-4-5-------------3-2-----|-----------------0-1-0---|
+---------------------3-2-+-1---1---1-0-1-3-------3-+
e e e e e e e s s e e e e q e e e e e s s e s s e s s
+---------------3-3---3-----+-----------------------------+
|-------3---3-1-----1---1---|-0-0-------0-3-3-0-5-5-0-6-6-|
|-1-1-1---1---------------3-|-----0-3-4-------------------|
+---------------------------+-----------------------------+
e s s e e e e e e e e e e e e e e e e e e e e e e
+---------------------------+-------------------------+
|-0-5-5-0-3-0-----------0---|---R---R-----------------|
|-------------4-3-0-3-4-----|-----------------0-1-0---|
+-------------------------3-+-1---1---1-0-1-3-------3-+
e e e e e e e e e e e e q e e e e e e e e e e
+---------------3-1-0-----+-----------------------+
|-------3---3-1-------3-1-|-0-0-------0-3-0-3-----|
|-1-1-1---1---------------|-----0-3-4---------0-3-|
+-------------------------+-----------------------+
e s s e s s e s s e e e e e e e e e e e e e e e e e e
+-------------------------------+-------------------------+
|-0-7-7-0-6-6-6-7-7-0-7-0-------|---R---R-----------------|
|-------------------------3-0---|-----------------0-1-0---|
+-----------------------------3-+-1---1---1-0-1-3-------3-+
e e e e e e e e e e e e q e e e e e s s s s s s s s s s
+---------------3---3-----+---------------------------------+
|-------3---3-1---1---1---|-0-0-------0-3-3-0-0-5-5-0-0-6-6-|
|-1-1-1---1-------------3-|-----0-3-4-----------------------|
+-------------------------+---------------------------------+
e e e e e e e e e e e e e e e e e e e e e e e e
+-----5-------------------+-------------------------+
|-7-7---7-6-5-3-0---------|---R---------------------|
|-----------------4-3-0---|-----------------0-1-0---|
+-----------------------3-+-1---1-0-1-0-1-3-------3-+
s s e e e e e e e e e e e e e e e e e e e e e e e
+-----------------3---5---7-+-------------------------+
|---------3---3-1---3---5---|-0-R-0-------0-3-0-3-----|
|-0-1-1-1---1---------------|-------0-3-4---------0-3-|
+---------------------------+-------------------------+
e e e e e e e e e e e e e e e e e e e e e e e e
+---7---6---5---4---3-----+-------------------------+
|-------------------------|---R---------------------|
|-5---4---3---2---1-------|-----------------0-1-0---|
+---------------------3-2-+-1---1-0-1-0-1-3-------3-+
e s s e e e e e e e e e e e e e e e e e e e q e q e e e q e q e
+---------------------3-3-3-+---3-2-0---------+---------------+-------------+
|---------3-3-3-1-1-1-------|7:-------3-2-0---|4:---R---R-----|---R---R-----|
|-1-1-1-1-------------------|8:-------------3-|4:-2---2---2---|-1---1---1---|
+---------------------------+-----------------+-------------2-+-----------3-+
q q e q e e e e e e q e e e q e q e e e q e q s s q e s s s s s s q
+-----------+---------------+-------------+---------------+-------------------+
|-3-3-R-3---|---R-----------|---R---R-----|---R---R-------|-------------7-7-7-|
|---------2-|-3---3-3-3-3---|-2---2---2---|-1---1---1-5-5-|-5-5-5-5-5-5-------|
+-----------+-------------3-+-----------2-+---------------+-------------------+
e s s s s s s s s e q e e q e q e e e q e q e e e q e q e
+-----------------------+-------------+-------------+-------------+
|-R-7-7-------------R---|---R---R-----|---R---R-----|-3-R-3-R-3---|
|-------5-5-5-5-5-5---5-|-2---2---2---|-1---1---1---|-----------2-|
+-----------------------+-----------2-+-----------3-+-------------+
e e e q q e e e e e e q e e e q e q e e e e e e e e e
+-------------+---------------+-------------+-------------7---+
|---R---R-----|---R-----R-----|---R---R-----|-------7-------7-|
|-3---3---3---|-2---2-2---2---|-1---1---1---|-5-5-5---5-5-----|
+-----------3-+-------------2-+-----------3-+-----------------+
e e e e s E e e e e q e q e e e q e q e e e q e q e e e e q q e
+---7-------------+-------------+-------------+-------------+-------------+
|-7---7-7---------|---R---R-----|---R---R-----|-3-R-3-R-3---|---R---R-----|
|---------5-5-5-5-|-2---2---2---|-1---1---1---|-----------2-|-3---3---3---|
+-----------------+-----------2-+-----------3-+-------------+-----------3-+
e e q e q e e e q e q e q e s s q q s s e q s s e q Q e+h
+-------------+-------------+---------7---+-----------------+-7-6---+
|---R---R-----|---R---R-----|-----7-------|-----R-------R---|-------|
|-2---2---2---|-1---1---1-1-|-5-5---5---5-|-5-5---5-5-5---5-|-------|
+-----------2-+-------------+-------------+-----------------+-------+
Q q e e e q e q e q +q e e e e Q e+h Q Q e e Q q e q
+-----------+-----------+--------------+---7-6---+---------+---------+
|-7-9-9-R-9-|-----------|3:----7-R-7-R-|4:-------|-9-7---7-|-5-4-7---|
|-----------|-7-7-9-7---|4:------------|4:-------|-----7---|---------|
+-----------+---------5-+--------------+---------+---------+-------5-+
e e s s s s e e Q e+h Q q e e e q e q e q +e e e e e e
+-------------------+---7-6---+-----------+-----------+----------------+
|3:-R-7-7-7-----7-R-|4:-------|-7-9-9-R---|-----------|3:------7-R-7-R-|
|4:---------7-7-----|4:-------|---------7-|-7-7-9-7---|4:--------------|
+-------------------+---------+-----------+---------5-+------5---------+
Q e+h Q q e e e e e e e h e e e Q e e q e e e Q q q
+---7-6---+-----------+-----------+-----------------+-------------+
|4:-------|-9-7-5-4---|---------R-|5:---R---7-5-R-4-|---R---------|
|4:-------|---------7-|-----------|4:-5---5---------|-------3-1-0-|
+---------+-----------+-3-3-3-5---+-----------------+-1---1-------+
e e e Q q q e e e q+e q q s s s s q e s s s E s s s s q e s s s E
+-------------+-------3---1-0-+---3-3-3---------------+---------------------+
|---R---3-1-0-|-1-R-1---------|4:-------R-R-R-------R-|-3-3-3-R-R-R-------R-|
|-1---1-------|---------------|4:-------------1-1-1---|---------------------|
+-------------+---------------+-----------------------+-------------1-1-1---+
w +w +w +w +w +w
+---+----+----+----+----+----+
|---|----|----|----|----|----|
|---|----|----|----|----|----|
+-3-+----+----+----+----+----+
==========================================================================
Created using the Bass Tab Creator
__ by Mario D'Alessio (motcid!marble!dalessio)
+|oo|+
+|oo|+ Notes: w = Whole h = Half q = Quarter
|| e = 8th s = 16th t = 32nd x = 64th
||
|| Capital durations are dotted notes
|| (equal to 1.5 times the duration value)
||
|| #
|| +----+ +----+
_ || _ |*--*+ = MEASURE |4:--| = TIME
_||_// |*--*+ REPEATS |4:--| SIGNATURES
| [] | +----+ (#=Num Repeats) +----+
| || |
/ [] + = TIE ^ = TRIPLET > = BEND
______/ H = HAMMER ON = SLIDE TO FRET R = Rest
P = PULL OFF X = SLIDE TO NOWHERE ~ = Trill




Ваше мнение



Капча