"FINDING MY WAY" guitar tabs
transcribed by George Grinch ([email protected])
intro
|-5------------------------------------------5--------------------------------
|-5------------------------------------------5--------------------------------
|-2---------------_-----_-----_-----_--------2---------------_-----_-----_----
|-2--------------4-2---4-2---4-2---4-2--_----2--------------4-2---4-2---4-2---
|-0--0-0-0-0-0-0-----3-----3-----3-----3-0---0--0-0-0-0-0-0-----3-----3-----3-
|-----------------------------------------------------------------------------
verse
-----------5-----------------------------------------3------|--------------3--
-----------5-----------------------------------------3--3---|-----------3--3--
--_--------2---------------_-----_-----_-----_-------0--2--.|--2-2---2--2--0--
-4-2--_----2--------------4-2---4-2---4-2---4-2--_---0--0--.|--2-2---2--0--0--
-----3-0---0--0-0-0-0-0-0-----3-----3-----3-----3-0---------|--0-0---0--------
------------------------------------------------------------|------3----------
[repeat four times]
----------------3-----------------3-----------------3------------------------
-3-----------3--3--3-----------3--3--3-----------3--3--3---------------------
-2--2-2---2--2--0--2--2-2---2--2--0--2--2-2---2--2--0--2---5-5-3-5--5--------
-0--2-2---2--0--0--0--2-2---2--0--0--0--2-2---2--0--0--0---5-5-3-5--5--3--5--
----0-0---0-----------0-0---0-----------0-0---0------------3-3-1-3--3--3--5--
--------3-----------------3-----------------3--------------------------1--3--
chorus
---------------------------------3-----------------3-----|------------------
------------------------------3--3--3-----------3--3--3--|------------------
--5-5-3-5--5---------2-2---2--2--0--2--2-2---2--2--0--2--|------------------
--5-5-3-5--5--3--5---2-2---2--0--0--0--2-2---2--0--0--0--|---3-----------5--
--3-3-1-3--3--3--5---0-0---0-----------0-0---0-----------|---3------3----5--
--------------1--3-------3-----------------3-------------|---1---1--1--1-3--
-------------------------3-3--|
-------------------------3-3--|
----------2-2----2----2--0-0--| repeat intro 3 times then
----------2-2----2----2--0-0--| verse and chorus once each
----5-----0-0----0----0-------|
--3-3--3-------3----3---------|
bridge
|---------------------------|---------------------------|-------------------
|---------------------------|---------------------------|-------------------
|--------------7-7---------.|--------------5-5---------.|--------------7-7--
|--7-7---------7-7---------.|--5-5---------5-5---------.|--7-7---------7-7--
|--7-7--4-5-7--5-5----------|--5-5--2-3-5--3-3----------|--7-7--4-5-7--5-5--
|--5-5--------------2-3-4---|--3-3--------------0-1-2---|--5-5--------------
[repeat two times] [repeat two times]

------------------------------|
------------------------------|
--------------------7-7-------|
--------7-7---------7-7--5-7--|
--------7-7--4-5-7--5-5--5-7--|
-2-3-4--5-5--------------3-5--|
Solo
|--------------------15--15-------15--------_----
|------13-15-13--15>====(17)--15--15>(17)>15-13--
|-->14-------------------------------------------
|------------------------------------------------
|------------------------------------------------
|------------------------------------------------
-----------------------------------_--------------------_---------_-----------
---15-13----------13>15--17>(19)>17-15---------------5-8-5-----5-8-5----_-----
14-------14-13-14-----------------------17-14->--7->-------7->-------7-7-5----
---------------------------------------------------------------------------7-5
------------------------------------------------------------------------------
------------------------------------------------------------------------------
------------------------------------------------------------------------------
------------_-------------_-_---------_---------------------------------------
5-7>-(10)->7-5---5-5--_--5-7-5---5-7-7-5---5----------------------------------
---------------7-----5-7-------7---------7---7-6-5----------------------------
---------------------------------------------------7-6-5-3-5-5>-8->5--_-------_--5---5-7>-------7-5---5-5-7>-------7>
---_----------5-7-5-----------5-7--_--5-7---7----------------7----------------
3-5-3---3-5>7-------7-------------5-7-----------------------------------------
------5-----------------------------------------------------------------------
_
---_--------_---------5-8-5---5--_-_-----------------------------------------
5-8-5----5-8-5----5-8-------7---8-7-5----5--_----5-------------------_-------
------7>-------7>---------------------7>---7-5---5-7-----5-7>-(11)->7-5---5-5
-----------------------------------------------7---7-5-7----------------7----
-----------------------------------------------------------------------------
-----------------------------------------------------------------------------
interlude gtr1
|---------_----------|-------------_----------------|-----------------------
|------5-7_8---------|--------5---7_8---------------|---------_-------------
|------5-7-8-5-7-5--.|--------5---7-8--5---7---5---.|------5-7-8-5-7-5------
|--5-7--------------.|--5--7-----------------------.|--5-7-------------5-7--
|--------------------|------------------------------|-----------------------
|--------------------|------------------------------|-----------------------
[repeat 4 times] | gtr2 |
|------------------------------|
|-------------_----------------|
|--------12-14-15-12--14--12--.|
|--12-14----------------------.|
|------------------------------|
|------------------------------|
[repeat 2 times]
-----_---------|
--5-7_8-5-7-5--| repeat chorus twice between bridge and solo; solo
--5-7-8-5-7-5--| is played over verse; after interlude, play chorus
---------------| two times, then the intro three times
---------------|
---------------|
ending verse
|--------------3-----------------3-----------------3---------------|
|-----------3--3--3-----------3--3--3-----------3--3--3------------|
|--2-2---2--2--0--2--2-2---2--2--0--2--2-2---2--2--0--2---2-2---2--|
|--2-2---2--0--0--0--2-2---2--0--0--0--2-2---2--0--0--0---2-2---2--|
|--0-0---0-----------0-0---0-----------0-0---0------------0-0---0--|
|------3-----------------3-----------------3------------------3----|
In the intro section, though this is not notated, Alex often plays the A chord
with a quick upstroke before the beat followed by a downstroke on the beat. The
open string notes in the intro are all played with downstrokes.
--
Legend:
| - A pair of these indicate a part of music, not the usuals bars.
: - Indicates that a part is to be repeated. This may be ommited,
you should
hear it too.
_ - Indicates a hammer-on or pull-off (You should know which is
appropriate)
- Indicates a bend-up or down or a slide. With a bend, the note to
bend to
is between '(' and ')'. Use the whammy for a downbend. With a
slide, the
follow-up note is the one to be slid to.
! - Indicates vibrato.
^ - Indicates a tapped harmonic. Is printed below the note.
. - Under the strings, it indicates the note is staccato (short).
\ - Indicates a general slide downwards from note, to no note in
particular.
AH - Indicates adding artificial harmonic with pick hand.
< - Indicates a downslide. Is only present here after an upslide
= - Indicates a held note. May also be a held bent. Used to give
some feel
for length when needed.
----
For corrections or questions on the tabs, contact the author. If no e-mail
address is included, contact Frank or Mario, addresses below. Contact Frank
for guitar tabs, and Mario for bass tabs.
For remarks, suggestions or additions on the tab 'archive', contact:
Frank (guitar) or Mario (bass)
([email protected])
([email protected])
HAPPY PLAYING!!




Ваше мнение



Капча