Face Up By: Rush
========================
w +e+h q e +w +h+Q s s q H +w Q q e q e q e e e e e
+-----+----------+----+----------+-----+----+---------+---------------+
|4:---|----------|----|----------|-----|----|---------|---------------|
|4:---|------3-3-|----|------3-2-|-----|----|-3-2-2-3-|-3-2-2-3-2-3-5-|
+---5-+----------+----+----------+-3-5-+----+---------+---------------+
e e e e e e e e e e e e e e e e e e e e e q e e e e q e e e
+-----------------+-----------------+---------------+---------------+
|-----7-----5-----|-7-----5---7---7-|---------------|---------------|
|-0-0---0-0---0-0-|---0-0---0---0---|-3-3-3-3-3-3-3-|-3-3-3-3-5-3-5-|
+-----------------+-----------------+---------------+---------------+
e e e e e e e e e e e e e e e e e e e e e q e e e e q e e e q e+h e
+-----------------+-----------------+---------------+---------------+---------+
|-----7-----5-----|-7-----5---7---7-|---------------|---------------|---7-----|
|-0-0---0-0---0-0-|---0-0---0---0---|-3-3-3-3-3-3-3-|-3-3-3-3-5-3-5-|---------|
+-----------------+-----------------+---------------+---------------+-5-----5-+
Q q e e e e e e e e e e e e e e q e e e e e q e e e e
+-----------+-----------------+---------------+---------------+
|-----------|-----------------|-------------7-|-----7---7-----|
|-----------|-2-2-2-2-2-2-2-2-|-5-5-5-5-5-5---|-0-0---0---0-0-|
+-3-5-5-3-5-+-----------------+---------------+---------------+
e e e e e e e e e e e e e e e e q e q e e e e e h e e
+-----------------+-----------------+-------------+-----------+
|-5-----7-----5-7-|-----------------|-------------|-----7-7---|
|---0-0---0-0-----|-2-2-2-2-2-2-2-0-|-------------|-0-0-----0-|
+-----------------+-----------------+-3-3-2-2-0-0-+-----------+
e e e e e e e e e e e e e e e e e e e e e e e e e e e e e e e e
+-----------------+-----------------+-----------------+-----------------+
|-7-----7---5---7-|-----------------|-----------------|-----7-----5-----|
|---0-0---0---0---|-3-3-3-3-3-3-3-3-|-3-3-3-3-3-5-3-5-|-0-0---0-0---0-0-|
+-----------------+-----------------+-----------------+-----------------+
e e e e e e e e e e e e e e e e q h q q e e e e e e e e e e e e e e
+-----------------+-----------------+-------+---------------+-----------------+
|-7-----5---7---7-|-----------------|---R-3-|-R-------------|-----------------|
|---0-0---0---0---|-3-3-3-3-3-3-3-3-|-3-----|---2-2-2-2-2-2-|-2-2-2-2-2-2---2-|
+-----------------+-----------------+-------+---------------+-------------5---+
e q e e e e e e q q e e e e e e q e e e e e e e e e e e
+---------------+-------------+---------------+-----------------+
|---------------|-------------|---------------|-----------------|
|-5-5-5-5-5-5-5-|-------------|-2-2-2-2-2-2-2-|-2-2-2-2-2-2---2-|
+---------------+-3-3-3-3-5-5-+---------------+-------------5---+
e e e e e e e e e e e e e e e e e e e q e e e e e e e e e e e
+-----------------+-----------------+---------------+-----------------+
|-----------------|-----------------|---------------|-----------------|
|-5-5-5-5-5-5-5---|-----------------|-2-2-2---2-2-2-|-------2-2-2-2-4-|
+---------------5-+-3-3-3-3-3-3-5-5-+-------5-------+-5-5-5-----------+
e e e e e e e e e e e e e e e e q Q e e e e e e e e e e e Q q e e e
+-----------------+-----------------+-----------+-----------------+-----------+
|-----------------|-----------------|-R-7---7---|-5-----7-----5-7-|-----------|
|-5-5-5-5-5-5-5---|-----------------|-----0---0-|---0-0---0-0-----|-2-2-2-2-2-|
+---------------5-+-3-3-3-2-2-2-0-0-+-----------+-----------------+-----------+
e e e q e e e e e Q e e e e e e e e e e e Q q e e e e e e Q e e
+---------------+-------------+-----------------+-----------+-------------+
|-------------7-|-----7---7---|-5-----7-----5-7-|-----------|-------------|
|-5-5-5-5-5-5---|-0-0---0---0-|---0-0---0-0-----|-2-2-2-2-2-|-------------|
+---------------+-------------+-----------------+-----------+-3-3-3-2-0-0-+
e e e e e e e e e e e e e e e e e e e e e e e e e e e e e e e e
+-----------------+-----------------+-----------------+-----------------+
|-----7-----------|-5-----7---------|-----------------|-----------------|
|-0-0---0-0-0-0-0-|---0-0---0-0---0-|-3-3-3-3-3-3-3-3-|-3-3-3-3-3-5-3-5-|
+-----------------+-------------3---+-----------------+-----------------+
e e e e e e e e e e e e e e e e e e e e e e e e q h q q e e e e e e
+-----------------+-----------------+-----------------+-------+---------------+
|-----7-----5-----|-7-----5---7---7-|-----------------|-5-R-5-|-R-------------|
|-0-0---0-0---0-0-|---0-0---0---0---|-3-3-3-3-3-3-3-3-|-3-----|---2-2-2-2-2-2-|
+-----------------+-----------------+-----------------+-------+---------------+
e e e e e e e e e e e e e e e e e e e q e e e e q q e e e
+-----------------+-----------------+---------------+-------------+
|-----------------|-----------------|---------------|-------------|
|-2-2-2-2-2-2---2-|-5-5-5-5-5-5-5---|---------------|-2-2-2-2-2-2-|
+-------------5---+---------------5-+-3-3-3-3-3-5-5-+-------------+
e q e e e e e e e e e e e e e e e e e e e e e e q e e e e e
+---------------+-----------------+-----------------+---------------+
|---------------|-----------------|-----------------|---------------|
|-2-2-2-2-2---2-|-5-5-5-5-5-5-5---|-----------------|-2-2-2-2-2-2-2-|
+-----------5---+---------------5-+-3-3-3-3-3-3-5-5-+---------------+
e e e e e e e e e e e e e e e e e e e e e e e e e e e e e e e e
+-----------------+-----------------+-----------------+-----------------+
|-----------------|-----------------|-----------------|-----R-------R---|
|-------2-2-2---2-|-5-5-5-5-5-5-5---|-----------------|-2-2---2-2-2---2-|
+-5-5-5-------5---+---------------5-+-3-3-3-2-2-2-0-0-+-----------------+
+e e e e e e e e e e e e e e e e +e e e e e e e e e e e e e e e e
+------------------+-----------------+------------------+-----------------+
|------------------|-----R---R---R---|------------------|-----R---R---R---|
|----2-2-2-2-2-2-2-|-2-2---2---2---2-|----2-2-2-2-2-2-2-|-2-2---2---2---2-|
+------------------+-----------------+------------------+-----------------+
+e e e e e e e e e e e e e e e e +e e e e e e e e e e e e e e e e
+------------------+-----------------+------------------+-----------------+
|------------------|-----R---R---R---|------------------|-----R---R---R---|
|----2-2-2-2-2-2-2-|-2-2---2---2---2-|----2-2-2-2-2-2-2-|-2-2---2---2---2-|
+------------------+-----------------+------------------+-----------------+
+e e e e e e e e e e e e e e e e +e e e e e e e e e e e e e e e e
+------------------+-----------------+------------------+-----------------+
|------------------|-----R---R---R---|------------------|-----R---R---R---|
|----2-2-2-2-2-2-2-|-2-2---2---2---2-|----2-2-2-2-2-2-2-|-2-2---2---2---2-|
+------------------+-----------------+------------------+-----------------+
+e e e e e e e e e e e e e e e e +e e e e e e e e e e e e e e e e
+------------------+-----------------+------------------+-----------------+
|------------------|-----R---R---R---|------------------|-----R---R---R---|
|----2-2-2-2-2-2-2-|-----------------|------------------|-2-2---2---2---2-|
+------------------+-3-3---3---3---3-+----3-3-3-5-5-5-5-+-----------------+
+e e e e e e e e e e e e e e e e +e e e e e e e e e e e e e e e e
+------------------+-----------------+------------------+-----------------+
|------------------|-----R-------R---|------------------|---------R---R---|
|----2-2-2-5-2-5---|-----------------|------------------|-2-2-2-2---2---2-|
+----------------5-+-3-3---3-3-3---3-+----3-2-3-3-5-3-5-+-----------------+
+e e e e e e e e e e e e e e e e +e e e e e e e e e e e e e e e e
+------------------+-----------------+------------------+-----------------+
|------------------|-----R---R-------|------------------|-----7-----5-----|
|----2---2-5-2-5---|-----------------|------------------|-0-0---0-0---0-0-|
+------5---------5-+-3-3---3---3-3-3-+----3-2-3-3-5-3-5-+-----------------+
e e e e e e e e e e e e e e e e e e e e e e e e e e e e e e e e
+-----------------+-----------------+-----------------+-----------------+
|-7-----5---7-5---|-----------------|-----------------|-----7-----5-----|
|---0-0---0-----7-|-3-3-3-3-3-3-3-3-|-0-0-0-0-0-3---5-|-0-0---0-0---0-0-|
+-----------------+-----------------+-------------3---+-----------------+
e e e e e e e e e e e e e e e e e e e e e e e e q Q e e e Q q e e e
+-----------------+-----------------+-----------------+-----------+-----------+
|-7-----5---7-----|-----------------|---------------2-|-R---------|-----------|
|---0-0---0---7-9-|-3-3-3-3-3-3-3-3-|-3-3-3-3-3-3-5---|---2-2-2-2-|-2-2-2---2-|
+-----------------+-----------------+-----------------+-----------+-------5---+
e e e e e e e e Q q e e e Q q e e e e e e q e e e e e e q e e e
+-----------------+-----------+-----------+---------------+---------------+
|-----------------|-----------|-----------|---------------|---------------|
|-5-5-5-5-5-5-5---|-----------|-2-2-2-2-2-|-2-2-2-2-2---2-|-5-5-5-5-5-5---|
+---------------5-+-3-3-3-5-5-+-----------+-----------5---+-------------5-+
e e e q e e e Q q e e e e e e q e e e e q q e e e e e e e e e e e
+---------------+-----------+---------------+-------------+-----------------+
|---------------|-----------|---------------|-------------|-----------------|
|---------------|-2-2-2-2-2-|-2-2-2-2-2---2-|-5-5-5-5-5---|-----------------|
+-3-3-3-3-3-5-5-+-----------+-----------5---+-----------5-+-3-3-3-3-3-3-5-5-+
e q e e e e e e e e e e e e e e e e e e e e e e e e e e e e e
+---------------+-----------------+-----------------+-----------------+
|---------------|-----------------|-----------------|-----------------|
|-2-2-2-2-2-2-2-|-2-2-2-2-2-2---2-|-5-5-5-5-5-5-5---|-----------------|
+---------------+-------------5---+---------------5-+-3-3-3-3-3-3-5-5-+
Q q e e e e e e e e e e e e e e e e e e e e e e e e e e e
+-----------+-----------------+-----------------+-----------------+
|-----------|-----------------|-----------------|-----------------|
|-2-2-2-2-2-|-------2-2-2---2-|-5-5-5-5-5-5-5---|-----------------|
+-----------+-5-5-5-------5---+---------------5-+-3-3-3-2-2-2-0-0-+
e e e e e e e e e e e q e e e e e e e e e e e e e e e e e e e
+-----------------+-------5-------+-----------------+-----------------+
|-----7-----7-----|-5-------5-----|-----------------|-----------------|
|-0-0---0-0---0-0-|---0-0-----7-5-|-3-3-3-3-3-3-3-3-|-3-3-3-3-3-5-3-5-|
+-----------------+---------------+-----------------+-----------------+
e e e e e e e e Q e e e e e e e e e e e e e e e e e e e e e
+-----------------+-------------+-----------------+-----------------+
|-----7-----5---5-|-7-5---5-2---|-----------------|-----------------|
|-0-0---0-0---0---|-----0-----5-|-3-3-3-3-3-3-3---|-2-2-2-3-3-5-5-5-|
+-----------------+-------------+---------------5-+-----------------+
e e e e e e e e e e e e e e e e e e e e e e q +e e e e e e e e
+-----------------+-----------------+-----------5---+------------------+
|-----7-----7-----|-7-----5---7---5-|---------------|------------------|
|-0-0---0-0---0-0-|---0-0---0---7---|-3-3-3-3-3---3-|------2-3-5-3-2-3-|
+-----------------+-----------------+---------------+----5-------------+
e e Q e e e e e e q e q e e e e e e q +e Q q q q H +w +w +w
+-------------+-------5-----+---------------+----------+-----+----+----+----+
|-----7-7-----|-7-------5---|---------------|----------|-R---|----|----|----|
|-0-0-----0-0-|---0-0-----7-|-3-3-3-2-2-3-5-|----3-2-5-|-----|----|----|----|
+-------------+-------------+---------------+----------+---5-+----+----+----+
==========================================================================
Created using the Bass Tab Creator
__ by Mario D'Alessio (motcid!marble!dalessio)
+|oo|+
+|oo|+ Notes: w = Whole h = Half q = Quarter
|| e = 8th s = 16th t = 32nd x = 64th
||
|| Capital durations are dotted notes
|| (equal to 1.5 times the duration value)
||
|| #
|| +----+ +----+
_ || _ |*--*+ = MEASURE |4:--| = TIME
_||_// |*--*+ REPEATS |4:--| SIGNATURES
| [] | +----+ (#=Num Repeats) +----+
| || |
/ [] + = TIE ^ = TRIPLET > = BEND
______/ H = HAMMER ON = SLIDE TO FRET R = Rest
P = PULL OFF X = SLIDE TO NOWHERE ~ = Trill




Ваше мнение



Капча