Everyday Glory
Timing - (4/4)
|
|Guitar 1
| q e e e e e e e e e q e e e
E|---------------------------------|---------------------------------|
B|-13------13--13--13--15--r---17--|-r---15--r---13------13--13--13--|
G|-------------------------e-------|-e-------e-----------------------|
D|-10------10--10--10--12--s---14--|-s---12--s---10------10--10--10--|
A|-------------------------t-------|-t-------t-----------------------|
E|---------------------------------|---------------------------------|
|
|Guitar 2
| e e e e e e e e e e e e e e e e
E|-3---3---3---3---3---3---3---3---|-3---3---3---3---3---3---3---3---|
B|-3---3---3---3---3---3---3---3---|-3---3---3---3---3---3---3---3---|
G|-5---5---5---5---5---5---5---5---|-5---5---5---5---5---5---5---5---|
D|-5---5---5---5---5---5---5---5---|-5---5---5---5---5---5---5---5---|
A|---------------------------------|---------------------------------|
E|---------------------------------|---------------------------------|
|
|Guitar 1
| q e e e e e e e h+Q
E|---------------------------------|---------------------------------|
B|-13------13--13--13--15--r---17--|-r---15--------------------------|
G|-------------------------e-------|-e-------------------------------|
D|-10------10--10--10--12--s---14--|-s---12--------------------------|
A|-------------------------t-------|-t-------------------------------|
E|---------------------------------|---------------------------------|
|
|Guitar 2
| e e e e e e e e e e e e e e e e
E|-3---3---3---3---3---3---3---3---|-3---3---3---3---3---3---3---3---|
B|-3---3---3---3---3---3---3---3---|-3---3---3---3---3---3---3---3---|
G|-5---5---5---5---5---5---5---5---|-0---0---0---0---0---0---0---0---|
D|-5---5---5---5---5---5---5---5---|-5---5---5---5---5---5---5---5---|
A|---------------------------------|---------------------------------|
E|---------------------------------|---------------------------------|
|
|Guitar 1
| q e e e e e e e e e q e e e
E|---------------------------------|---------------------------------|
B|-13------13--13--13--15--r---17--|-r---15--r---13------13--13--13--|
G|-------------------------e-------|-e-------e-----------------------|
D|-10------10--10--10--12--s---14--|-s---12--s---10------10--10--10--|
A|-------------------------t-------|-t-------t-----------------------|
E|---------------------------------|---------------------------------|
|
|Guitar 2
| e e e e e e e e e e e e e e e e
E|-3---3---3---3---3---3---3---3---|-3---3---3---3---3---3---3---3---|
B|-3---3---3---3---3---3---3---3---|-3---3---3---3---3---3---3---3---|
G|-5---5---5---5---5---5---5---5---|-5---5---5---5---5---5---5---5---|
D|-5---5---5---5---5---5---5---5---|-5---5---5---5---5---5---5---5---|
A|---------------------------------|---------------------------------|
E|---------------------------------|---------------------------------|
|
|Guitar 1
| q e e e e e e e h e q
E|---------------------------------|---------------------------------|
B|-13------13--13--13--15--r---17--|-r---15--------------15--15------|
G|-------------------------e-------|-e-------------------12--12------|
D|-10------10--10--10--12--s---14--|-s---12--------------------------|
A|-------------------------t-------|-t-------------------------------|
E|---------------------------------|---------------------------------|
|
|Guitar 2
| e e e e e e e e e e e e e e e e
E|-3---3---3---3---3---3---3---3---|-3---3---3---3---3---3---3---3---|
B|-3---3---3---3---3---3---3---3---|-3---3---3---3---3---3---3---3---|
G|-5---5---5---5---5---5---5---5---|-0---0---0---0---0---0---0---0---|
D|-5---5---5---5---5---5---5---5---|-5---5---5---5---5---5---5---5---|
A|---------------------------------|---------------------------------|
E|---------------------------------|---------------------------------|
Guitar 2 out
|
|Guitar 1
| q H
E|---------------------------------|
B|-(15)----r-----------------------|
G|-(12)----e-----------------------|
D|---------s-----------------------|
A|---------t-----------------------|
E|---------------------------------|
| Guitar 1 out
|
|Guitar 3 (Palm Muting Throughout)
| e e e e e e e e e e e e e e e e
E|---------------------------------|---------------------------------|
B|-----8-------8-------8-------8---|-----8-------8-------8-------8---|
G|-0-------0-------0-------0-------|-0-------0-------0-------0-------|
D|---------------------------------|---------------------------------|
A|---------------------------------|---------------------------------|
E|---------------------------------|---------------------------------|
|
|Guitar 3
| e e e e e e e e e e e e e e e e
E|---------------------------------|---------------------------------|
B|-----8-------8-------8-------8---|-----8-------8-------8-------8---|
G|-0-------0-------0-------0-------|-0-------0-------0-------0-------|
D|---------------------------------|---------------------------------|
A|---------------------------------|---------------------------------|
E|---------------------------------|---------------------------------|
|
|Guitar 3
| e e e e e e e e e e e e e e e e
E|---------------------------------|---------------------------------|
B|-----8-------8-------8-------8---|-----8-------8-------8-------8---|
G|-0-------0-------0-------0-------|-0-------0-------0-------0-------|
D|---------------------------------|---------------------------------|
A|---------------------------------|---------------------------------|
E|---------------------------------|---------------------------------|
|
|Guitar 3
| e e e e e e e e e e e e e e e e
E|---------------------------------|---------------------------------|
B|-----8-------8-------8-------8---|-----7-------8-------10------7---|
G|-0-------0-------0-------0-------|-0-------0-------0-------0-------|
D|---------------------------------|---------------------------------|
A|---------------------------------|---------------------------------|
E|---------------------------------|---------------------------------|
|
|Guitar 3
| e e e e e e e e e e e e e e e e
E|---------------------------------|---------------------------------|
B|-----8-------8-------8-------8---|-----8-------8-------8-------8---|
G|-0-------0-------0-------0-------|-0-------0-------0-------0-------|
D|---------------------------------|---------------------------------|
A|---------------------------------|---------------------------------|
E|---------------------------------|---------------------------------|
|
|Guitar 3
| e e e e e e e e e e e e e e e e
E|---------------------------------|---------------------------------|
B|-----8-------8-------8-------8---|-----7-------5-------7-------8---|
G|-0-------0-------0-------0-------|-0-------0-------0-------0-------|
D|---------------------------------|---------------------------------|
A|---------------------------------|---------------------------------|
E|---------------------------------|---------------------------------|
|
|Guitar 3
| e e e e e e e e e e e e e e e e
E|---------------------------------|---------------------------------|
B|-----8-------8-------8-------8---|-----8-------8-------8-------8---|
G|-0-------0-------0-------0-------|-0-------0-------0-------0-------|
D|---------------------------------|---------------------------------|
A|---------------------------------|---------------------------------|
E|---------------------------------|---------------------------------|
|
|Guitar 3
| e e e e e e e e e e e e e e e e
E|---------------------------------|---------------------------------|
B|-----8-------8-------8-------8---|-----7-------12------10------8---|
G|-0-------0-------0-------0-------|-0-------0-------0-------0-------|
D|---------------------------------|---------------------------------|
A|---------------------------------|---------------------------------|
E|---------------------------------|---------------------------------|
Guitar 3 out
|
|Guitar 1
| q e e e e e e e e e q e e e
E|---------------------------------|---------------------------------|
B|-13------13--13--13--15--r---17--|-r---15--r---13------13--13--13--|
G|-------------------------e-------|-e-------e-----------------------|
D|-10------10--10--10--12--s---14--|-s---12--s---10------10--10--10--|
A|-------------------------t-------|-t-------t-----------------------|
E|---------------------------------|---------------------------------|
|
|Guitar 2
| e e e e e e e e e e e e e e e e
E|-3---3---3---3---3---3---3---3---|-3---3---3---3---3---3---3---3---|
B|-3---3---3---3---3---3---3---3---|-3---3---3---3---3---3---3---3---|
G|-5---5---5---5---5---5---5---5---|-5---5---5---5---5---5---5---5---|
D|-5---5---5---5---5---5---5---5---|-5---5---5---5---5---5---5---5---|
A|---------------------------------|---------------------------------|
E|---------------------------------|---------------------------------|
|
|Guitar 1
| q e e e e e e e h+Q
E|---------------------------------|---------------------------------|
B|-13------13--13--13--15--r---17--|-r---15--------------------------|
G|-------------------------e-------|-e-------------------------------|
D|-10------10--10--10--12--s---14--|-s---12--------------------------|
A|-------------------------t-------|-t-------------------------------|
E|---------------------------------|---------------------------------|
| Guitar 1 out
|Guitar 2
| e e e e e e e e e e e e e e e e
E|-3---3---3---3---3---3---3---3---|-3---3---3---3---3---3---3---3---|
B|-3---3---3---3---3---3---3---3---|-3---3---3---3---3---3---3---3---|
G|-5---5---5---5---5---5---5---5---|-0---0---0---0---0---0---0---0---|
D|-5---5---5---5---5---5---5---5---|-5---5---5---5---5---5---5---5---|
A|---------------------------------|---------------------------------|
E|---------------------------------|---------------------------------|
Guitar 2 out
|
|Guitar 3 (Palm Muting Throughout)
| e e e e e e e e e e e e e e e e
E|---------------------------------|---------------------------------|
B|-----8-------8-------8-------8---|-----8-------8-------8-------8---|
G|-0-------0-------0-------0-------|-0-------0-------0-------0-------|
D|---------------------------------|---------------------------------|
A|---------------------------------|---------------------------------|
E|---------------------------------|---------------------------------|
|
|Guitar 4
| e e e h+e h q e e
E|---------------------------------|---------------------------------|
B|-------------3-------------------|-r---------------r-------r-------|
G|---------0-----------------------|-e---------------e-------e-------|
D|-----4---------------------------|-s---------------s-------s-------|
A|-0-------------------------------|-t---------------t-------t---3---|
E|---------------------------------|---------------------------------|
|
|Guitar 3
| e e e e e e e e e e e e e e e e
E|---------------------------------|---------------------------------|
B|-----8-------8-------8-------8---|-----7-------8-------10------7---|
G|-0-------0-------0-------0-------|-0-------0-------0-------0-------|
D|---------------------------------|---------------------------------|
A|---------------------------------|---------------------------------|
E|---------------------------------|---------------------------------|
|
|Guitar 4
| w w
E|---------------------------------|---------------------------------|
B|---------------------------------|-r-------------------------------|
G|---------------------------------|-e-------------------------------|
D|-0-------------------------------|-s-------------------------------|
A|---------------------------------|-t-------------------------------|
E|---------------------------------|---------------------------------|
|
|Guitar 3
| e e e e e e e e e e e e e e e e
E|---------------------------------|---------------------------------|
B|-----8-------8-------8-------8---|-----8-------8-------8-------8---|
G|-0-------0-------0-------0-------|-0-------0-------0-------0-------|
D|---------------------------------|---------------------------------|
A|---------------------------------|---------------------------------|
E|---------------------------------|---------------------------------|
|
|Guitar 4
| e e e h+e
E|---------------------------------|
B|-------------3-------------------|
G|---------0-----------------------|
D|-----4---------------------------|
A|-0-------------------------------|
E|---------------------------------|
Guitar 4 out
|Guitar 3 (Echo Delay Off)
| e e e e e e e e e e e e s s e e e
E|---------------------------------|----------------------------------|
B|-----8-------8-------8-------8---|-----7-------12----12-10----------|
G|-0-------0-------0-------0-------|-0-------0-------0--------0---0---|
D|---------------------------------|--------------------------0---0---|
A|---------------------------------|----------------------------------|
E|---------------------------------|----------------------------------|
|
|Guitar 3 (Echo Delay On)
| e e e e e s s s s e s s e+s s e+s s e e s s
E|-----------------------------------|------------------------------------|
B|-8-------8---8---8---10-----10-12--|-(12)-12-10---10-8----8-8---8---8-8-|
G|-0---0---0---0---0---0--0-0-0--0---|-(0)--0--0----0--0----0-0---0---0-0-|
D|-----------------------------------|------------------------------------|
A|-----------------------------------|------------------------------------|
E|-----------------------------------|------------------------------------|
|
|Guitar 3
| e e e e e s s s s e s s e e e e e e e
E|-----------------------------------|---------------------------------------|
B|-8-------8---8---8---10-----10-12--|-(12)-12-10--(10)----------------------|
G|-0---0---0---0---0---0--0-0-0--0---|-(0)--0--0----0----0---0---0---0---0---|
D|-----------------------------------|---------------------------------------|
A|-----------------------------------|---------------------------------------|
E|-----------------------------------|---------------------------------------|
|
|Guitar 3
| e e e e e s s s s e s s e+s s e+s s e e s s
E|-----------------------------------|------------------------------------|
B|-8-------8---8---8---10-----10-12--|-(12)-12-10---10-8----8-8---8---8-8-|
G|-0---0---0---0---0---0--0-0-0--0---|-(0)--0--0----0--0----0-0---0---0-0-|
D|-----------------------------------|------------------------------------|
A|-----------------------------------|------------------------------------|
E|-----------------------------------|------------------------------------|
|
|Guitar 3
| e e e e e s s s s e s s e e e e e e e
E|-----------------------------------|---------------------------------------|
B|-8-------8---8---8---10-----10-12--|-(12)-12-10--(10)----------------------|
G|-0---0---0---0---0---0--0-0-0--0---|-(0)--0--0----0----0---0---0---0---0---|
D|-----------------------------------|---------------------------------------|
A|-----------------------------------|---------------------------------------|
E|-----------------------------------|---------------------------------------|
Guitar 3 out
|
|Guitar 2
| q Q+q s s q Q e e s s
E|---------0-------------------x-x-|---------2---------------2---x-x-|
B|---------0-------------------x-x-|---------4---------------4---x-x-|
G|---------1-------------------x-x-|-4-------4-----------4---4---x-x-|
D|-2-------2-----------------------|-4-------4-----------4---4-------|
A|-2-------2-----------------------|-2-------2-----------2---2-------|
E|-0-------0-----------------------|---------------------------------|
|
|Guitar 5
| q q e e e s s e e s s e e e e s s
E|---------0-------0---0---0-------|---------------------------------|
B|-0-------0-------0---0---0---4-4-|-4---4---4-4-4---4---4---4---2---|
G|-1-------1-------1---1---1---4-4-|-4---4---4-4-4---4---4---4---2-2-|
D|-2-------2-------2---2---2---4-4-|-4---4---4-4-4---4---4---4---2-2-|
A|-2-------2-------2-------2---2---|-2-------2---2---2-------2---0---|
E|-0-------0-------0-------0-------|---------------------------------|
|
|Guitar 2
| q Q e e s s q Q e e s s
E|---------5---------------5---x-x-|---------9---------------9---0-0-|
B|---------5---------------5---x-x-|---------9---------------9---0-0-|
G|---------6---------------6---x-x-|---------9---------------9-------|
D|-7-------7-----------7---7-------|-11------11----------11--11------|
A|-7-------7-----------7---7-------|-11------11----------11--11------|
E|-5-------5-----------5---5-------|-9-------9-----------9---9-------|
|
|Guitar 5
| q q e e s s s s e e s s e e e s s s s
E|-------------------------0-0-0---|-----4-----4---------4-----4---0-|
B|-2-------2-------2---2---2-2-2-5-|-5---5---5-5-5---5---5---5-5-5-0-|
G|-2-------2-------2---2---2-2-2-6-|-6---6---6-6-6---6---6---6-6-6-1-|
D|-2-------2-------2---2---2---2-6-|-6---6---6---6---6-------6-6-6-2-|
A|-0-------0-------0-------0---0---|-4-------4---4---4-------4-------|
E|---------------------------------|---------------------------------|
|
|Guitar 2
| e e Q+q s s q Q e e s s
E|---------0-------------------x-x-|---------2---------------2---x-x-|
B|---------0-------------------x-x-|---------4---------------4---x-x-|
G|---------1-------------------x-x-|-4-------4-----------4---4---x-x-|
D|-2---2---2-----------------------|-4-------4-----------4---4-------|
A|-2---2---2-----------------------|-2-------2-----------2---2-------|
E|-0---0---0-----------------------|---------------------------------|
|
|Guitar 5
| s s s s q e e s s s s e e s s e e e e s s
E|-0-0-0-0-0-------0---0---0-0-0-0-|---------------------------------|
B|-0-0-0-0-0-------0---0---0-0-0-0-|-4---4---4-4-4---4---4---4---2-2-|
G|-1-1-1-1-1-------1---1---1-1-1-1-|-4---4---4-4-4---4---4---4---2-2-|
D|-2---2---2-------2---2---2---2---|-4---4---4-4-4---4---4---4---2-2-|
A|-2---2---2-------2-------2---2---|-2-------2---2---2-------2---0---|
E|-0---0---0-------0-------0---0---|---------------------------------|
|
|Guitar 2
| q Q e e s s q e q e e s s
E|---------5---------------5---x-x-|-------------4-------4-------x-x-|
B|---------5---------------5---x-x-|-------------5-------5-------x-x-|
G|---------6---------------6---x-x-|-6-------6---6-------6---6---x-x-|
D|-7-------7-----------7---7-------|-6-------6---6-------6---6-------|
A|-7-------7-----------7---7-------|-4-------4---4-------4---4-------|
E|-5-------5-----------5---5-------|---------------------------------|
|
|Guitar 5
| e e e e e e s s s s e e s s e e e s s s s
E|-----0-------0---0---0---0-0-0---|-----4-----4---------4-----4---0-|
B|-2---2---2---2---2---2---2-2-2-5-|-5---5---5-5-5---5---5---5-5-5-0-|
G|-2---2---2---2---2---2---2-2-2-6-|-6---6---6-6-6---6---6---6-6-6-1-|
D|-2-------2-------2-------2---2-6-|-6---6---6---6---6-------6-6-6-2-|
A|-0-------0-------0-------0---0---|-4-------4---4---4-------4-------|
E|---------------------------------|---------------------------------|
|
|Guitar 2
| q e q e e s s q q q q
E|-------------2-----------2---x-x-|-5-------5-------5-------5-------|
B|-------------4-----------4---x-x-|-5-------5-------5-------5-------|
G|-4-------4---4-------4---4---x-x-|-6-------6-------6-------6-------|
D|-4-------4---4-------4---4-------|-7-------7-------7-------7-------|
A|-2-------2---2-------2---2-------|-7-------7-------7-------7-------|
E|---------------------------------|-5-------5-------5-------5-------|
|
|Guitar 5
| e e e e e e e s s e e e e e e e e
E|-------------2-------2-----------|-0-------0---0---0-----------0---|
B|-4---4---4---4-------4-------2-2-|-2---2---2---2---2---2---2---2---|
G|-4---4---4---4---4---4---4---2-2-|-2---2---2---2---2---2---2---2---|
D|-4---4---4-------4-------4---2-2-|-2---2---2-------2---2---2-------|
A|-2-------2-------2-------2---0---|-0-------0-------0-------0-------|
E|---------------------------------|---------------------------------|
|
|Guitar 2
| e e e q e q e e e q e q
E|-------------0-------------------|---------------------------------|
B|-------------0-----------0-------|-------------0-----------0-------|
G|---------6-----------6-----------|---------4-----------4-----------|
D|-----6---------------------------|-----4---------------------------|
A|-4-------------------------------|-2-------------------------------|
E|---------------------------------|---------------------------------|
|
|Guitar 5
| q e e e e e e e e e e e e e e
E|-------------0-------0-------0---|---------------------------------|
B|---------5---0-------0-------0---|-----4-------0---0---0---0---0---|
G|-6-------6-----------6-------6---|-4---4---4---4---4---4---4---2---|
D|-6-------6-------6-------6-------|-4-------4---4---4---4---4---2---|
A|-4-------4-------4-------4-------|-2-------2-------2-------2---0---|
E|---------------------------------|---------------------------------|
|
|Guitar 2
| Q e Q e h s s s s q
E|-5---------------5---------------|---------------------------------|
B|-5---------------5---------------|---------------------------------|
G|-6---------------6-----------2---|-2---------------2-2-2-2-2-------|
D|-7-----------7---7-----------2---|-2---------------2-2-2-2-2-------|
A|-7-----------7---7-----------0---|-0---------------0-0-0-0-0-------|
E|-5-----------5---5---------------|---------------------------------|
| Guitar 2 out
|Guitar 5
| e e e e e e e e e e e s s s s s s q
E|-----0---------------0-------0---|-------------------0-0-0-0-------|
B|-----2-------2-------2---2---2---|-0---0---0---0-0-0-0-0-0-0-------|
G|-2---2---2---2---2---2---2---2---|-2---2---2---2-2-2-2-2-2-2-------|
D|-2-------2---2---2-------2-------|-2---2---2---2-2-2---2---2-------|
A|-0-------0---0---0-------0-------|-0-------0-------0---0---0-------|
E|---------------------------------|---------------------------------|
Guitar 5 out
|
|Guitar 3 (Palm Muting Throughout)
| e e e e e e e e e e e e e e e e
E|---------------------------------|---------------------------------|
B|-----8-------8-------8-------8---|-----8-------8-------8-------8---|
G|-0-------0-------0-------0-------|-0-------0-------0-------0-------|
D|---------------------------------|---------------------------------|
A|---------------------------------|---------------------------------|
E|---------------------------------|---------------------------------|
|
|Guitar 3
| e e e e e e e e e e e e e e e e
E|---------------------------------|---------------------------------|
B|-----8-------8-------8-------8---|-----8-------8-------8-------8---|
G|-0-------0-------0-------0-------|-0-------0-------0-------0-------|
D|---------------------------------|---------------------------------|
A|---------------------------------|---------------------------------|
E|---------------------------------|---------------------------------|
|
|Guitar 4
| e e e q Q
|---------------------------------|
|-r-------------------3-----------|
|-e---2-------0-------------------|
|-s---0---4-----------------------|
|-t-------------------------------|
|---------------------------------|
|
|Guitar 3
| e e e e e e e e e e e e e e e e
E|---------------------------------|---------------------------------|
B|-----8-------8-------8-------8---|-----8-------8-------8-------8---|
G|-0-------0-------0-------0-------|-0-------0-------0-------0-------|
D|---------------------------------|---------------------------------|
A|---------------------------------|---------------------------------|
E|---------------------------------|---------------------------------|
|
|Guitar 4
| w w
E|---------------------------------|---------------------------------|
B|-(3)-----------------------------|-r-------------------------------|
G|---------------------------------|-e-------------------------------|
D|---------------------------------|-s-------------------------------|
A|---------------------------------|-t-------------------------------|
E|---------------------------------|---------------------------------|
|
|Guitar 3
| e e e e e e e e e e e e e e e e
E|---------------------------------|---------------------------------|
B|-----8-------8-------8-------8---|-----7-------8-------10------7---|
G|-0-------0-------0-------0-------|-0-------0-------0-------0-------|
D|---------------------------------|---------------------------------|
A|---------------------------------|---------------------------------|
E|---------------------------------|---------------------------------|
|
|Guitar 4
| w w
E|---------------------------------|---------------------------------|
B|-r-------------------------------|-r-------------------------------|
G|-e-------------------------------|-e-------------------------------|
D|-s-------------------------------|-s-------------------------------|
A|-t-------------------------------|-t-------------------------------|
E|---------------------------------|---------------------------------|
|
|Guitar 3
| e e e e e e e e e e e e e e e e
E|---------------------------------|---------------------------------|
B|-----8-------8-------8-------8---|-----8-------8-------8-------8---|
G|-0-------0-------0-------0-------|-0-------0-------0-------0-------|
D|---------------------------------|---------------------------------|
A|---------------------------------|---------------------------------|
E|---------------------------------|---------------------------------|
|
|Guitar 4
| e e e h+e w
E|---------------------------------|---------------------------------|
B|-------------3-------------------|-(3)-----------------------------|
G|---------0-----------------------|---------------------------------|
D|-----4---------------------------|---------------------------------|
A|-0-------------------------------|---------------------------------|
E|---------------------------------|---------------------------------|
|
|Guitar 3
| e e e e e e e e e e e e e e e e
E|---------------------------------|---------------------------------|
B|-----8-------8-------8-------8---|-----7-------5-------7-------8---|
G|-0-------0-------0-------0-------|-0-------0-------0-------0-------|
D|---------------------------------|---------------------------------|
A|---------------------------------|---------------------------------|
E|---------------------------------|---------------------------------|
|
|Guitar 4
| e e e h+e w
E|---------------------------------|---------------------------------|
B|-------------1-------------------|-r-------------------------------|
G|---------0-----------------------|-e-------------------------------|
D|-----2---------------------------|-s-------------------------------|
A|-3-------------------------------|-t-------------------------------|
E|---------------------------------|---------------------------------|
|
|Guitar 3
| e e e e e e e e e e e e e e e e
E|---------------------------------|---------------------------------|
B|-----8-------8-------8-------8---|-----8-------8-------8-------8---|
G|-0-------0-------0-------0-------|-0-------0-------0-------0-------|
D|---------------------------------|---------------------------------|
A|---------------------------------|---------------------------------|
E|---------------------------------|---------------------------------|
|
|Guitar 4
| e e e h+e w
E|---------------------------------|---------------------------------|
B|-------------3-------------------|-(3)-----------------------------|
G|---------0-----------------------|---------------------------------|
D|-----4---------------------------|---------------------------------|
A|-0-------------------------------|---------------------------------|
E|---------------------------------|---------------------------------|
|
|Guitar 3
| e e e e e e e e e e e e e e e e
E|---------------------------------|---------------------------------|
B|-----8-------8-------8-------8---|-----8-------8-------8-------8---|
G|-0-------0-------0-------0-------|-0-------0-------0-------0-------|
D|---------------------------------|---------------------------------|
A|---------------------------------|---------------------------------|
E|---------------------------------|---------------------------------|
|
|Guitar 4
| e e e q e e e e e e h+e
E|-------------0------(0)----------|---------------------------------|
B|---------1-----------------------|-------------3-------------------|
G|---------------------------------|---------0-----------------------|
D|-----2----------------------(2)--|-----4---------------------------|
A|-3----------------------(3)------|-5-------------------------------|
E|---------------------------------|---------------------------------|
Guitar 4 out
|
|Guitar 3
| e e e e e s s s s e s s e+s s e+s s e e s s
E|-----------------------------------|------------------------------------|
B|-8-------8---8---8---10-----10-12--|-(12)-12-10---10-8----8-8---8---8-8-|
G|-0---0---0---0---0---0--0-0-0--0---|-(0)--0--0----0--0----0-0---0---0-0-|
D|-----------------------------------|------------------------------------|
A|-----------------------------------|------------------------------------|
E|-----------------------------------|------------------------------------|
|
|Guitar 3
| e e e e e s s s s e s s e e e e e e e
E|-----------------------------------|---------------------------------------|
B|-8-------8---8---8---10-----10-12--|-(12)-12-10--(10)----------------------|
G|-0---0---0---0---0---0--0-0-0--0---|-(0)--0--0----0----0---0---0---0---0---|
D|-----------------------------------|---------------------------------------|
A|-----------------------------------|---------------------------------------|
E|-----------------------------------|---------------------------------------|
|
|Guitar 3
| e e e e e s s s s e s s e+s s e+s s e e s s
E|-----------------------------------|------------------------------------|
B|-8-------8---8---8---10-----10-12--|-(12)-12-10---10-8----8-8---8---8-8-|
G|-0---0---0---0---0---0--0-0-0--0---|-(0)--0--0----0--0----0-0---0---0-0-|
D|-----------------------------------|------------------------------------|
A|-----------------------------------|------------------------------------|
E|-----------------------------------|------------------------------------|
|
|Guitar 3
| e e e e e s s s s e s s e e e e e e e
E|-----------------------------------|---------------------------------------|
B|-8-------8---8---8---10-----10-12--|-(12)-12-10--(10)----------------------|
G|-0---0---0---0---0---0--0-0-0--0---|-(0)--0--0----0----0---0---0---0---0---|
D|-----------------------------------|---------------------------------------|
A|-----------------------------------|---------------------------------------|
E|-----------------------------------|---------------------------------------|
Guitar 3 out
|
|Guitar 2
| q Q+q s s q Q e e s s
E|---------0-------------------x-x-|---------2---------------2---x-x-|
B|---------0-------------------x-x-|---------4---------------4---x-x-|
G|---------1-------------------x-x-|-4-------4-----------4---4---x-x-|
D|-2-------2-----------------------|-4-------4-----------4---4-------|
A|-2-------2-----------------------|-2-------2-----------2---2-------|
E|-0-------0-----------------------|---------------------------------|
|
|Guitar 5
| q q e e e s s e e s s e e e e s s
E|---------0-------0---0---0-------|---------------------------------|
B|-0-------0-------0---0---0---4-4-|-4---4---4-4-4---4---4---4---2---|
G|-1-------1-------1---1---1---4-4-|-4---4---4-4-4---4---4---4---2-2-|
D|-2-------2-------2---2---2---4-4-|-4---4---4-4-4---4---4---4---2-2-|
A|-2-------2-------2-------2---2---|-2-------2---2---2-------2---0---|
E|-0-------0-------0-------0-------|---------------------------------|
|
|Guitar 2
| q Q e e s s q Q e e s s
E|---------5---------------5---x-x-|---------9---------------9---0-0-|
B|---------5---------------5---x-x-|---------9---------------9---0-0-|
G|---------6---------------6---x-x-|---------9---------------9-------|
D|-7-------7-----------7---7-------|-11------11----------11--11------|
A|-7-------7-----------7---7-------|-11------11----------11--11------|
E|-5-------5-----------5---5-------|-9-------9-----------9---9-------|
|
|Guitar 5
| q q e e s s s s e e s s e e e s s s s
E|-------------------------0-0-0---|-----4-----4---------4-----4---0-|
B|-2-------2-------2---2---2-2-2-5-|-5---5---5-5-5---5---5---5-5-5-0-|
G|-2-------2-------2---2---2-2-2-6-|-6---6---6-6-6---6---6---6-6-6-1-|
D|-2-------2-------2---2---2---2-6-|-6---6---6---6---6-------6-6-6-2-|
A|-0-------0-------0-------0---0---|-4-------4---4---4-------4-------|
E|---------------------------------|---------------------------------|
|
|Guitar 2
| e e Q+q s s q Q e e s s
E|---------0-------------------x-x-|---------2---------------2---x-x-|
B|---------0-------------------x-x-|---------4---------------4---x-x-|
G|---------1-------------------x-x-|-4-------4-----------4---4---x-x-|
D|-2---2---2-----------------------|-4-------4-----------4---4-------|
A|-2---2---2-----------------------|-2-------2-----------2---2-------|
E|-0---0---0-----------------------|---------------------------------|
|
|Guitar 5
| s s s s q e e s s s s e e s s e e e e s s
E|-0-0-0-0-0-------0---0---0-0-0-0-|---------------------------------|
B|-0-0-0-0-0-------0---0---0-0-0-0-|-4---4---4-4-4---4---4---4---2-2-|
G|-1-1-1-1-1-------1---1---1-1-1-1-|-4---4---4-4-4---4---4---4---2-2-|
D|-2---2---2-------2---2---2---2---|-4---4---4-4-4---4---4---4---2-2-|
A|-2---2---2-------2-------2---2---|-2-------2---2---2-------2---0---|
E|-0---0---0-------0-------0---0---|---------------------------------|
|
|Guitar 2
| q Q e e s s q e q e e s s
E|---------5---------------5---x-x-|-------------4-------4-------x-x-|
B|---------5---------------5---x-x-|-------------5-------5-------x-x-|
G|---------6---------------6---x-x-|-6-------6---6-------6---6---x-x-|
D|-7-------7-----------7---7-------|-6-------6---6-------6---6-------|
A|-7-------7-----------7---7-------|-4-------4---4-------4---4-------|
E|-5-------5-----------5---5-------|---------------------------------|
|
|Guitar 5
| e e e e e e s s s s e e s s e e e s s s s
E|-----0-------0---0---0---0-0-0---|-----4-----4---------4-----4---0-|
B|-2---2---2---2---2---2---2-2-2-5-|-5---5---5-5-5---5---5---5-5-5-0-|
G|-2---2---2---2---2---2---2-2-2-6-|-6---6---6-6-6---6---6---6-6-6-1-|
D|-2-------2-------2-------2---2-6-|-6---6---6---6---6-------6-6-6-2-|
A|-0-------0-------0-------0---0---|-4-------4---4---4-------4-------|
E|---------------------------------|---------------------------------|
|
|Guitar 2
| q e q e e s s q q q q
E|-------------2-----------2---x-x-|-5-------5-------5-------5-------|
B|-------------4-----------4---x-x-|-5-------5-------5-------5-------|
G|-4-------4---4-------4---4---x-x-|-6-------6-------6-------6-------|
D|-4-------4---4-------4---4-------|-7-------7-------7-------7-------|
A|-2-------2---2-------2---2-------|-7-------7-------7-------7-------|
E|---------------------------------|-5-------5-------5-------5-------|
|
|Guitar 5
| ======3======
| e e e e e e e s s e e e e q q q
E|-------------2-------2-----------|---------------------------------|
B|-4---4---4---4-------4-------2-2-|-2---2---2---2---2-----2-----2---|
G|-4---4---4---4---4---4---4---2-2-|-2---2---2---2---4-----2-----2---|
D|-4---4---4-------4-------4---2-2-|-2---2---2---2---2-----2-----2---|
A|-2-------2-------2-------2---0---|-0---0---0---0---0-----0-----0---|
E|---------------------------------|---------------------------------|
|Guitar 2
| e e e q e q e e e q e q
E|-------------0-------------------|---------------------------------|
B|-------------0-----------0-------|-------------0-----------0-------|
G|---------6-----------6-----------|---------4-----------4-----------|
D|-----6---------------------------|-----4---------------------------|
A|-4-------------------------------|-2-------------------------------|
E|---------------------------------|---------------------------------|
|
|Guitar 5
| q e e e e e e e e e e e e e e
E|-------------0-------0-------0---|---------------------------------|
B|---------5---0-------0-------0---|-----4-------0---0---0---0---0---|
G|-6-------6-----------6-------6---|-4---4---4---4---4---4---4---2---|
D|-6-------6-------6-------6-------|-4-------4---4---4---4---4---2---|
A|-4-------4-------4-------4-------|-2-------2-------2-------2---0---|
E|---------------------------------|---------------------------------|
|
|Guitar 2 ======3======
| Q e q q q
E|---------------------------------|
B|---------------------------------|
G|-2-----------2---2-----2-----2---|
D|-2-----------2---2-----2-----2---|
A|-0-----------0---0-----0-----0---|
E|---------------------------------|
|
|Guitar 5
| ======3======
| e e e e q q q
E|---------------------------------|
B|-2---2---2---2---2-----2-----2---|
G|-2---2---2---2---4-----2-----2---|
D|-2---2---2---2---2-----2-----2---|
A|-0---0---0---0---0-----0-----0---|
E|---------------------------------|
Guitar 5 out
|
|Guitar 2
| e e e e e e e e e e e e s s e e e
E|-------------------------------------|-----------------------------------|
B|-------------------------------------|-----------------------------------|
G|-------------------------------------|-----------------------------------|
D|-------------------------------------|-----------------------------------|
A|-7---7---7---7---7---7---7-----7-----|-5---5---5---5---5-5-5-/-7-----2---|
E|-5---5---5---5---5---5---5-----5-----|-3---3---3---3---3-3-3-/-5-----0---|
|
|Guitar 3
| e s s e e s s e s s s s Q e e e s s e
E|-------------------------------------|-----------------------------------|
B|-8---8-8-8---8---8-8/12--12-12-12/15-|-15v---------15--12v-12--12-12-12--|
G|-0---0-0-0---0---0-0-0---0--0--0--0--|-0-----------0---0-----------------|
D|-------------------------------------|-----------------------------------|
A|-------------------------------------|-----------------------------------|
E|-------------------------------------|-----------------------------------|
|
|Guitar 2
| e e e e e e e e e q e e e e e
E|-------------------------------------|---------------------------------|
B|-------------------------------------|---------------------------------|
G|-------------------------------------|---------------------------------|
D|-------------------------------------|---------------------------------|
A|-2-----2---2---2---2---2---2-----2---|-3---3-------3---3---3---3---3-/-|
E|-0-----0---0---0---0---0---0-----0---|-1---1-------1---1---1---1---1-/-|
|
|Guitar 3
| s s e e e q s s e h+e e e e
E|-------------------------------------|---------------------8---8-------|
B|-12h13p12----------------------------|---------------------8---8-------|
G|-----------14--12--14v-----14p12-----|-12--------------------------0---|
D|---------------------------------14--|---------------------------------|
A|-------------------------------------|---------------------------------|
E|-------------------------------------|---------------------------------|
|
|Guitar 2
| e e e e e e e e e e s s e e e e e
E|------------------------------------|-------------------------------------|
B|------------------------------------|-------------------------------------|
G|------------------------------------|-------------------------------------|
D|------------------------------------|-------------------------------------|
A|-7---7---7---7---7---7----7----7----|-5--5----5-5-----5---5---5---4---5---|
E|-5---5---5---5---5---5----5----5----|-3--3----3-3-----3---3---3---2---3---|
|
|Guitar 3
| E s e s s s s s s s s s s e e ===e==== e q e e
E|------------------------------------|-----------------------------12--12--|
B|-8-----7-7-----7-8-8-8/10-10---8-10-|-10/12-10h12p10--10--10v-------------|
G|-0-----0-0---0-0-0-0-0----0--0------|-0-----------0-----------------------|
D|------------------------------------|-------------------------------------|
A|------------------------------------|-------------------------------------|
E|------------------------------------|-------------------------------------|
|
|Guitar 2
| e q e e e e e e e e e e e e e
E|-----------------------------------|-----------------------------------|
B|-----------------------------------|-----------------------------------|
G|-----------------------------------|-----------------------------------|
D|-5---5-------5-----5---5---5---5---|-7-------7---------7-------7-------|
A|-3---3-------3-----3---3---3---3---|-5---5---5-----5---5---5---5---5---|
E|-3---------------------------------|-5---5---5-----5---5---5---5---5---|
|
|Guitar 3
| e e e s s e e e e e e s s e q q
E|-12--------------------------------|-----------------------------------|
B|-----12--12--15-12-15--12------12--|---------------------------15^-----|
G|---------------------------14------|-14--12--14p12-----12v-------------|
D|-----------------------------------|---------------14------------------|
A|-----------------------------------|-----------------------------------|
E|-----------------------------------|-----------------------------------|
|
|Guitar 2
| e e e e e e e e e e e e s s e e e
E|--------------------------------------|-------------------------------------|
B|--------------------------------------|-------------------------------------|
G|--------------------------------------|-------------------------------------|
D|--------------------------------------|-------------------------------------|
A|--7---7--7---7-----7----7---7-----7---|-5---5---5-----5--5-5-5-/-7----2-----|
E|--5---5--5---5-----5----5---5-----5---|-3---3---3-----3--3-3-3-/-5----0-----|
|
|Guitar 3
| ===3====
| q e e ==q== s s e e e s s h s s s
E|--------------------------------------|----------------------------12h13p12-|
B|-(15)----15^-15--12h15v-----15p12-----|-12----------------------------------|
G|--------------------------------------|-----14--14p12h14--------------------|
D|----------------------------------14--|-------------------------------------|
A|--------------------------------------|-------------------------------------|
E|--------------------------------------|-------------------------------------|
|
|Guitar 2
| e e e e e e e e e q e e e e e
E|----------------------------------------|-----------------------------------|
B|----------------------------------------|-----------------------------------|
G|----------------------------------------|-----------------------------------|
D|----------------------------------------|-----------------------------------|
A|-2---2-----2-----2-----2--2---2---2-----|-3-----3-------3---3---3---3---3-/-|
E|-0---0-----0-----0-----0--0---0---0-----|-1-----1-------1---1---1---1---1-/-|
|
|Guitar 3
| e s s s s s s e e e s s s s e Q e e e
E|----------------------------------------|-----------------------------------|
B|-13--13p12h13p12h15p13p12-----12--------|-----------------------8---8---8---|
G|--------------------------14------14-12-|-12-12-14--12v--------0---0---0---|
D|----------------------------------------|-----------------------------------|
A|----------------------------------------|-----------------------------------|
E|----------------------------------------|-----------------------------------|
|
|Guitar 2
| e e e e e e e e e e s s e e e e e
E|---------------------------------|----------------------------------|
B|---------------------------------|----------------------------------|
G|---------------------------------|----------------------------------|
D|---------------------------------|----------------------------------|
A|-7---7---7---7---7---7---7---7---|-5---5---5-5-5---5---5---4----5---|
E|-5---5---5---5---5---5---5---5---|-3---3---3-3-3---3---3---2----3---|
|
|Guitar 3
| q e e s s e s s s s e e e e q+s s e
E|---------------------------------|----------------------------------|
B|-8------8---3---3-3-3---3h5-3-3-|-3-/-5---5-/-8---8v--------11-12--|
G|-0-------0---0---0-0-0---0---0-0-|-0-------0-------0----------------|
D|---------------------------------|----------------------------------|
A|---------------------------------|----------------------------------|
E|---------------------------------|----------------------------------|
|
|Guitar 2
| e q e e e e e e q e Q s s
E|---------------------------------|----------------------------------|
B|---------------------------------|------------------------------0-0-|
G|---------------------------------|------------------------------0-0-|
D|-5---5-------5---5---5---5---5---|-7----------------------------0-0-|
A|-3---3-------3---3---3---3---3---|-5---5--------5---5-----------2-2-|
E|-3-------------------------------|-5---5--------5---5-----------3-3-|
|
|Guitar 3
| s E e e e e q q+s s e e e q
E|---------------------------------|----------------------17----------|
B|-12p10----108---8-/-10--10------|--------------------------r-------|
G|-------------------------0-------|-14v-------12-14--14------e-------|
D|---------------------------------|--------------------------s-------|
A|---------------------------------|--------------------------t-------|
E|---------------------------------|----------------------------------|
Guitar 3 out
|
|Guitars 2 & 5
| q H h+Q s s
E|---------------------------------|-----------------------------5-5-|
B|-0-------0-----------------------|-(0)-------------------------5-5-|
G|-0-------0-----------------------|-(0)-------------------------5-5-|
D|-0-------0-----------------------|-(0)-------------------------7-7-|
A|-2-------2-----------------------|-(2)-------------------------7---|
E|-3-------3-----------------------|-(3)-------------------------5---|
|
|Guitars 2 & 5
| q H h+Q s s
E|-5-------5-----------------------|-(5)-------------------------0-0-|
B|-5-------5-----------------------|-(5)-------------------------1-1-|
G|-5-------5-----------------------|-(5)-------------------------0-0-|
D|-7-------7-----------------------|-(7)-------------------------2-2-|
A|-7-------7-----------------------|-(7)-------------------------3-3-|
E|-5-------5-----------------------|-(5)-------------------------3-3-|
|
|Guitars 2 & 5
| q H h+Q s s
E|-0-------0-----------------------|-(0)-----------------------------|
B|-1-------1-----------------------|-(1)-------------------------7-7-|
G|-0-------0-----------------------|-(0)-------------------------7-7-|
D|-2-------2-----------------------|-(2)-------------------------7-7-|
A|-3-------3-----------------------|-(3)-------------------------5---|
E|-3-------3-----------------------|-(3)-----------------------------|
|
|Guitars 2 & 5
| e e q q e e q e e e e e e
E|-------------------------2---2---|-2-------2-----------------------|
B|-7---r---7------r-------3---3---|-3-------3---3---3---3---3---3---|
G|-7---e---7------e-------2---2---|-2-------2---2---2---2---2---2---|
D|-7---s---7------s-------0---0---|-0-------0---0---0---0---0---0---|
A|-5---t---5------t---------------|---------------------------------|
E|---------------------------------|---------------------------------|
|
|Guitar 2
| q q e e e e e e e e e e e e
E|---------3-----------------------|-----------------------------------|
B|---------3-----------------------|-----------------------------------|
G|---------0-----------------------|-----------------------------------|
D|---------0-----------------------|-----------------------------------|
A|---------------------------------|-----------------------------------|
E|-3-------3-------3---3---3---3---|-3---3---3---3---3---3---3---3-----|
| -------------------Palm Muting-----------------------|
|Guitar 5
| q e e e e e e e e e e e e e e
E|---------3-----------------------|---------------------------------|
B|-0-------0---0---0---0---0---0---|-0---0---0---0---0---0---0---0---|
G|-0-------0---0---0---0---0---0---|-0---0---0---0---0---0---0---0---|
D|-0-------0---0---0---0---0---0---|-0---0---0---0---0---0---0---0---|
A|---------------------------------|---------------------------------|
E|-3-------3-------3---3---3---3---|-3---3---3---3---3---3---3---3---|
|
|Guitar 2
| q e e e e e e e e e e e e e s s
E|-5-------5---5-------------------|-----------------------------x-x---|
B|-5-------5---5-------------------|-----------------------------x-x---|
G|-5-------5---5-------------------|-----------------------------x-x---|
D|-7-------7---7-------------------|-----------------------------------|
A|-7-------7---7---7---7---7---7---|-7---7---7---7---7---7---7---------|
E|-5-------5---5---5---5---5---5---|-5---5---5---5---5---5---5---------|
| -----------------Palm Muting-------------------------|
|Guitar 5
| e e e e e e e e e e e e e e e s s
E|-5---5---5---5---5---5---5---5---|-5---5---5---5---5---5---5---0-0-|
B|-5---5---5---5---5---5---5---5---|-5---5---5---5---5---5---5---1-1-|
G|-5---5---5---5---5---5---5---5---|-5---5---5---5---5---5---5---0-0-|
D|-7---7---7---7---7---7---7---7---|-7---7---7---7---7---7---7---2---|
A|-7---7---7---7---7---7---7---7---|-7---7---7---7---7---7---7---3---|
E|-5---5---5---5---5---5---5---5---|-5---5---5---5---5---5---5-------|
|
|Guitar 2
| q e e e e e e e e e e e e e s s
E|-0-------------------------------|-----------------------------x-x---|
B|-1-------------------------------|-----------------------------x-x---|
G|-0-------------------------------|-----------------------------x-x---|
D|-2-------2---2---2---2---2---2---|-2---2---2---2---2---2---2---------|
A|-3-------3---3---3---3---3---3---|-3---3---3---3---3---3---3---------|
E|---------------------------------|-----------------------------------|
| ---------------------Palm Muting-----------------------------|
|Guitar 5
| e e e e e e e e e e e e e e e s s
E|-0---0---0---0---0---0---0---0---|-0---0---0---0---0---0---0---2-2-|
B|-1---1---1---1---1---1---1---1---|-1---1---1---1---1---1---1---3-3-|
G|-0---0---0---0---0---0---0---0---|-0---0---0---0---0---0---0---2-2-|
D|-2---2---2---2---2---2---2---2---|-2---2---2---2---2---2---2---0---|
A|-3---3---3---3---3---3---3---3---|-3---3---3---3---3---3---3-------|
E|---------------------------------|---------------------------------|
|
|Guitar 2
| q e e e e e e e e e e e e e e
E|---------------------------------|-----------------------------------|
B|-3-------------------------------|-----------------------------------|
G|-2-------2---2---2---2---2---2---|-2---2---2---2---2---2---2---2-----|
D|-0-------0---0---0---0---0---0---|-0---0---0---0---0---0---0---0-----|
A|---------------------------------|-----------------------------------|
E|---------------------------------|-----------------------------------|
| ------Palm Muting--------------------------------------------| Guitar 2 out
|Guitar 5
| q e e e e e e e e e e e e e e
E|---------------------------------|---------------------------------|
B|-3-------3---3---3---3---3---3---|-3---3---3---3---3---3---3---3---|
G|-2-------2---2---2---2---2---2---|-2---2---2---2---2---2---2---2---|
D|-0-------0---0---0---0---0---0---|-0---0---0---0---0---0---0---0---|
A|---------------------------------|---------------------------------|
E|---------------------------------|---------------------------------|
Guitar 5 out
|
|Guitar 3
| e s s e e e e s s e e e+s s e s s e s s s s
E|----------------------------------|-----------------------------------|
B|-8---8-8-8---8---8---10----10-12--|-(12)--10---10-8---8-8-8---8-8-8-8-|
G|-0---0-0-0---0---0---0---0-0--0---|-(0)---0----0--0---0-0-0---0-0-0-0-|
D|----------------------------------|-----------------------------------|
A|----------------------------------|-----------------------------------|
E|----------------------------------|-----------------------------------|
|
|Guitar 3
| e s s e e e e s s e e h e e e
E|----------------------------------|-----------------------------------|
B|-8---8-8-8---8---8---10----10-12--|-(12)--10--------------------------|
G|-0---0-0-0---0---0---0---0-0--0---|-(0)---0---------------0---0---0---|
D|----------------------------------|-----------------------------------|
A|----------------------------------|-----------------------------------|
E|----------------------------------|-----------------------------------|
|
|Guitar 3
| e s s e e e e s s e e e+s s e s s e s s s s
E|----------------------------------|-----------------------------------|
B|-8---8-8-8---8---8---10----10-12--|-(12)--10---10-8---8-8-8---8-8-8-8-|
G|-0---0-0-0---0---0---0---0-0--0---|-(0)---0----0--0---0-0-0---0-0-0-0-|
D|----------------------------------|-----------------------------------|
A|----------------------------------|-----------------------------------|
E|----------------------------------|-----------------------------------|
|
|Guitar 3
| e s s e e e e s s e e h e e e
E|----------------------------------|-----------------------------------|
B|-8---8-8-8---8---8---10----10-12--|-(12)--10--------------------------|
G|-0---0-0-0---0---0---0---0-0--0---|-(0)---0---------------0---0---0---|
D|----------------------------------|-----------------------------------|
A|----------------------------------|-----------------------------------|
E|----------------------------------|-----------------------------------|
|
|Guitar 3
| e s s e e e e s s e e e+s s e s s e s s s s
E|----------------------------------|-----------------------------------|
B|-8---8-8-8---8---8---10----10-12--|-(12)--10---10-8---8-8-8---8-8-8-8-|
G|-0---0-0-0---0---0---0---0-0--0---|-(0)---0----0--0---0-0-0---0-0-0-0-|
D|----------------------------------|-----------------------------------|
A|----------------------------------|-----------------------------------|
E|----------------------------------|-----------------------------------|
|
|Guitar 3
| e s s e e e e s s e e h e e e
E|----------------------------------|-----------------------------------|
B|-8---8-8-8---8---8---10----10-12--|-(12)--10--------------------------|
G|-0---0-0-0---0---0---0---0-0--0---|-(0)---0---------------0---0---0---|
D|----------------------------------|-----------------------------------|
A|----------------------------------|-----------------------------------|
E|----------------------------------|-----------------------------------|
Guitar 3 out
|
|Guitar 1
| q e e e e e e e e e q e e e
E|---------------------------------|---------------------------------|
B|-13------13--13--13--15--r---17--|-r---15--r---13------13--13--13--|
G|-------------------------e-------|-e-------e-----------------------|
D|-10------10--10--10--12--s---14--|-s---12--s---10------10--10--10--|
A|-------------------------t-------|-t-------t-----------------------|
E|---------------------------------|---------------------------------|
|
|Guitar 2
| e e e e e e e e e e e e e e e e
E|-3---3---3---3---3---3---3---3---|-3---3---3---3---3---3---3---3---|
B|-3---3---3---3---3---3---3---3---|-3---3---3---3---3---3---3---3---|
G|-5---5---5---5---5---5---5---5---|-5---5---5---5---5---5---5---5---|
D|-5---5---5---5---5---5---5---5---|-5---5---5---5---5---5---5---5---|
A|---------------------------------|---------------------------------|
E|------------




Ваше мнение



Капча