Entre Nous By: Rush
========================
w +w w +w w +w w +w w +w w +w w +w w
+-----+----+---+----+---+----+---+----+---+----+---+----+---+----+---+
|4:---|----|---|----|---|----|---|----|---|----|---|----|---|----|---|
|4:---|----|---|----|-2-|----|-2-|----|---|----|---|----|-2-|----|-2-|
+---5-+----+-5-+----+---+----+---+----+-5-+----+-5-+----+---+----+---+
e q q e e e q e e e e q q e e e e e e q e e e e e e q e e e e s s e
+-------------+-------------+---------------+---------------+-----------------+
|-------------|---R---R---R-|---R---R-------|-6-R-6-R-6---5-|-5-R-5-R-5-5-7-5-|
|-2-2-2-2-2---|-------------|-5---5---5-5-7-|-----------7---|-----------------|
+-----------2-+-3---3---3---+---------------+---------------+-----------------+
q e e e e e e q e e e e e e q e e e e e e q e e e e e e
+---------------+---------------+---------------+---------------+
|---R---R-------|---R---R---R---|---R---R---R---|-6-R-6-R-6---5-|
|-5---5---5-----|---------------|-----5---5---7-|-----------7---|
+-----------5-4-+-3---3---3---3-+-2-------------+---------------+
e e e e e e s s e e e e e e e e e e e e q e q +e q q e e e
+-------------------+-----------------+-------------+--------------+
|-R-5---5-R-5-5-7-5-|-R---------4-5-6-|-7---7-5-4---|--------------|
|-----5-------------|---5-4-5-5-------|---7-------5-|----5-5-5-----|
+-------------------+-----------------+-------------+----------5-4-+
q e e e e q q e e e e e e q e e e e e e q e e e e s s e
+-------------+---------------+---------------+-----------------+
|---R---R---R-|---R---R-------|-6-R-6-R-6---5-|-5-R-5-R-5-5-7-5-|
|-------------|-5---5---5-5-7-|-----------7---|-----------------|
+-3---3---3---+---------------+---------------+-----------------+
e e e e e e e e q e e q q q e e e e e e q e e e e e e
+-----------------+-----------+---------------+---------------+
|-R---------------|---R---R---|---R---R-------|-6-R-6-R-6---5-|
|---5-4-5-4-5-----|-----------|-5---5---5-5-7-|-----------7---|
+-------------5-4-+-3---3---3-+---------------+---------------+
e e e e e e e e e e e e e e e e e e e q e w q e q e e e
+-----------------+-----------------+-------------+-----+-------------+
|-5-5---5-R-5-7-5-|-----------4-5-6-|3:-7---7-5-4-|4:---|---7---R---R-|
|-----5-----------|-5-5-4-5-5-------|4:---7-------|4:-5-|-----2---3---|
+-----------------+-----------------+-------------+-----+-5-----------+
Q e e e q +e e e e e e q e e e q e e e e q e e e e q q e q
+-----------+----------------+---------------+-------------+-------------+
|-----------|------R---------|---------------|3:-------R---|4:-----------|
|-3-3-3---2-|----2---3-3-----|-------2---3---|4:-3-3-3---2-|4:-----------|
+-------3---+------------3-3-+-5-3-5---3---3-+-------------+---5-5-5-3-3-+
q e q e e e Q e e e q +e e e e e e q e e e q e e e Q s s q q w
+-------------+-----------+----------------+---------------+-----------+---+
|---R---R---R-|-----------|------R---------|-------------R-|-----------|---|
|-----2---3---|-3-3-3---2-|----2---3-3-----|-------2---3---|-3-2-2-----|-5-|
+-5-----------+-------3---+------------3-3-+-5-3-5---3-----+-------5-3-+---+
Q Q w w +w w e q e e e e e h h e e q h e q e q e e
+-------+-----+---+----+---+---------------+-----+---------+-------------+
|3:-----|4:---|---|----|---|-R-------R-----|-----|-----R---|-6-6---6---6-|
|4:-3-2-|4:---|---|----|---|---------------|-----|-5-5---5-|-----7---7---|
+-------+---3-+-5-+----+-5-+---5-5-5---5-2-+-3-3-+---------+-------------+
e q e e e e e e q e q e e e q e q e e e q e q e e e q e e e e e
+---------------+-------------+-------------+-------------+---------------+
|-5-5---5---5-4-|-------------|-------------|-------------|-6-6---6-6---5-|
|-----5---7-----|-5-5-4-5-----|-----------4-|-5-5---5-5-7-|-----7-----7---|
+---------------+---------5-4-+-3-3-2-3-3---+-----5-------+---------------+
e e e e e e s s e e e e e e e e e Q q e w q e q e e e
+-------------------+-----------------+---------+-----+-------------+
|-5-5---5-5-5-5-7-5-|-----------4-5-6-|3:-7-5-4-|4:---|---R---R---R-|
|-----5-------------|-5-5-4-5-5-------|4:-------|4:-5-|-----2---3---|
+-------------------+-----------------+---------+-----+-5-----------+
Q e e e q +e e e e e e q e e e q e e e e q q e e e e e e e e e
+-----------+----------------+---------------+-----------+-------------------+
|-----------|------R---------|---------------|3:---------|4:-----R---R-----R-|
|-3-3-3---2-|----2---3-3-----|-------2---3---|4:-3-3-3-2-|4:-----------------|
+-------3---+------------3-3-+-5-3-5---3---3-+-----------+---5-5---5---3-3---+
q e q e e e Q e e e q +e e e e e e q e e e q e e e Q e q q w
+-------------+-----------+----------------+---------------+---------+---+
|---R---R---R-|-----------|------R---------|-------------R-|---------|---|
|-----2---3---|-3-3-3---2-|----2---3-3-----|-------2---3---|-3-2-----|-5-|
+-5-----------+-------3---+------------3-3-+-5-3-5---3-----+-----5-3-+---+
Q Q w w +w w +Q e e e q e+h e q e+h e e e q e q e e e
+-------+-----+---+----+---+------------+---------+-----------+-------------+
|3:-----|4:---|---|----|---|------------|---------|-----------|-------------|
|4:-3-2-|4:---|---|----|-2-|----2-2-2-2-|-3---3-3-|-5---5-5-7-|---7-----7---|
+-------+---3-+-5-+----+---+------------+---------+-----------+-0---0-0---0-+
e e e e e e e e Q e e e e e Q e e e e s s Q e e e e e e e e q e e e
+-----------------+-------------+---------------+-------------+---4---------4-+
|-R---------------|-----R-------|-----R---------|-----R-------|-----4-7-6-7---|
|---7-7-7-7-5-4-3-|-2-2---2-2---|-2-2---2-2-----|-2-2---2-2---|-2-------------|
+-----------------+-----------5-+-----------5-5-+-----------5-+---------------+
Q e e e e e e e e e e e e e Q e e e e e e e e e e e e s s
+-------------+-----------------+---------4---+-4-6-4-------------+
|-2-2-R-2-----|-2---R-----------|-2-2-R-2---2-|-------7-6-7-9-----|
|---------2-5-|---------------2-|-------------|---------------7-9-|
+-------------+---4---4-5-4-5---+-------------+-------------------+
Q e e e e s s e s s e q e e e Q e e e e e e s s e s s e e s s s s
+---------------+---------4-6-4---+-------------+---4-4---2-2-------------+
|-----R---------|---------------4-|-----R-------|-------4-----2-6-6-7-6-4-|
|-2-2---2-2-----|-2-2-2-----------|-2-2---2-2---|-2-----------------------|
+-----------2-5-+-------5---------+-----------2-+-------------------------+
Q e e e e e e s s e e e e e e Q e e e e e e s s e e e e e e
+-------------+---4-4--------11------+-------------+----16-16-16-14-13-11-9-4-+
|-2-2-R-2-2---|-2-----2-11-9----9-11-|-----R---R---|--------------------------|
|-----------2-|----------------------|-7-7---7---7-|-14-----------------------|
+-------------+----------------------+-------------+--------------------------+
q Q q e q Q q e q Q q e q Q e e e q e q e q +e q e e e e e
+---------+---------+---------+-----------+-----------+----------------+
|-----7-6-|-4-4-2-4-|-----7-6-|-4-4-2-R-2-|---------7-|--------7---7---|
|-2-2-----|---------|-2-2-----|-----------|-----7-----|----7-7---7---7-|
+---------+---------+---------+-----------+-5-5---5---+----------------+
Q e e e e e s s e e e e e e e q e e e e e e q e e e e e e
+-------------+-------------------+---------------+---------------+
|---------9---|-9-9-7-6-4-2-------|---R---R---R---|---R---R-------|
|---9-9-------|-------------5-4-2-|---------------|-5---5---5-5-7-|
+-7-----7---7-+-------------------+-3---3---3---3-+---------------+
q e e e e e e q e e e e s s e e e e e e e e e q e e e e e e
+---------------+-----------------+-----------------+---------------+
|-6-R-6-R-6---5-|-5-R-5-R-5-5-7-5-|-----------------|---R---R---R---|
|-----------7---|-----------------|-5-5-4-5-4-5-----|---------------|
+---------------+-----------------+-------------5-4-+-3---3---3---3-+
q e e e e e e q e e e e e s s e e e e e e s s e e e e e e e e e
+---------------+-----------------+-------------------+-----------------+
|---R---R-------|-6-R-6-R-6---5-5-|-5-5---5-R-5-5-7-5-|-----------4-5-6-|
|-5---5---5-5-7-|-----------7-----|-----5-------------|-5-5-4-5-5-------|
+---------------+-----------------+-------------------+-----------------+
e e e e e e e e e e e e e e e e Q q e w q e q e e e Q e e e q
+-----------------+-----------------+---------+-----+-------------+-----------+
|-7---7-5-R-4-----|-----------------|3:-------|4:---|---R---R---R-|-----------|
|---7---------5-5-|-5-5-5-5-5-5-5-5-|4:-------|4:-5-|-----2---3---|-3-3-3---2-|
+-----------------+-----------------+---5-3-3-+-----+-5-----------+-------3---+
+e e e e e e q e e e q e e e e q q e e q q e e e q e q e e e
+----------------+---------------+-----------+---------------+-------------+
|------R---------|---------------|3:---------|4:-----------R-|---R---R---R-|
|----2---3-3-----|-------2---3---|4:-3-3-3-2-|4:-------------|-----2---3---|
+------------3-3-+-5-3-5---3---3-+-----------+---5-5-5-3-3---+-5-----------+
Q e e e q +e e e e e e q e e e q e e e Q e q q w q e q e w
+-----------+----------------+---------------+---------+---+-----------+-----+
|-----------|------R---------|-------------R-|---------|---|3:---R---R-|4:---|
|-3-3-3---2-|----2---3-3-----|-------2---3---|-3-2-----|-5-|4:-3---2---|4:---|
+-------3---+------------3-3-+-5-3-5---3-----+-----5-3-+---+-----------+---3-+
+w +w +w
+----+----+----+
|----|----|----|
|----|----|----|
+----+----+----+
==========================================================================
Created using the Bass Tab Creator
__ by Mario D'Alessio (motcid!marble!dalessio)
+|oo|+
+|oo|+ Notes: w = Whole h = Half q = Quarter
|| e = 8th s = 16th t = 32nd x = 64th
||
|| Capital durations are dotted notes
|| (equal to 1.5 times the duration value)
||
|| #
|| +----+ +----+
_ || _ |*--*+ = MEASURE |4:--| = TIME
_||_// |*--*+ REPEATS |4:--| SIGNATURES
| [] | +----+ (#=Num Repeats) +----+
| || |
/ [] + = TIE ^ = TRIPLET > = BEND
______/ H = HAMMER ON = SLIDE TO FRET R = Rest
P = PULL OFF X = SLIDE TO NOWHERE ~ = Trill




Ваше мнение



Капча