Rush - Earthshine
Tabbed by Eyes-radio-lies
I didnt write the rythm for the chorus and the prechorus
Intro and verse
------------------------------------------------
------------------------------------------------
------------------------------------------------
------------------------------------------------
----9--7--9--7--9--7--9--7----10h12---10h12-----
----7--7--7--7--7--7--7--7----10------10--------
----------------------------------
----------------------------------
----------------------------------
----------------------------------
----------------------------------
-9--7--9--7--9--7--9--7----5---5--
-7--7--7--7--7--7--7--7----5---5--
PreChorus
--0------5-----5----------------------------------------
--0------5-----5----------------------------------------
--1------7-----6----------------------------------------
--2-----------------------------------------------------X4
--------------------------------------------------------
--------------------------------------------------------
Chorus
Earthhhhhshine.....
-------------------------------------------
-------------------------------------------
-------------------------------------------
-------------------------------------------X2
--9---7---5---4---7p5-----9---7---5---4----
--7---5---3---2---5-------7---5---3---2----
Repeat the intro and verse riff 8 times
I didnt figure it out the rest of the song. I will tab it soon.




Ваше мнение



Капча