#----------------------------------PLEASE NOTE---------------------------------#
#This file is the author's own work and represents their interpretation of the #
#song. You may only use this file for private study, scholarship, or research. #
#------------------------------------------------------------------------------##
Dreamline By: Rush
====================
From: Guitar School - January 1992
Original Transcription by: Michael DuClos
Converted by: Mario D'Alessio
w h+q q e e e e e e e e 6 e e e e e e e e 2 e e e e e e e e
+-----+---------+-------------------+-------------------+-----------------+
|4:-R-|-R---7X-|*-----------------*|*-----------------*|-----------------|
|4:---|---------|*-----------------*|*-2-2-2-2-2-2-2-2-*|-3-3-3-3-3-3-3-3-|
+-----+---------+--0-0-0-0-0-0-0-0--+-------------------+-----------------+
e e e e e q e e e e e e e e e e e e q q e +e e e e e e e e
+---------------+-----------------+-------12-11-9-+------------------+
|---------------|-----------------|-------12-11-9-|------------------|
|-----------5-7-|-----7---7-----7-|-----7---------|------7---7-------|
+-3-3-3-3-3-----+-0-0---0---0-0---+-0-0-----------+----0---0---0-0-0-+
e e e q q e +e e e e e e e e e e e q q e e e e e e e e e
+-------12-11-9-+------------------+-------12-11-7-+-----------------+
|-------12-11-9-|------------------|-------12-11-7-|-R---------------|
|-7-------------|------7-7-7-7-7-7-|-7-7-7---------|---5-5-5-5-5-5-5-|
+---0-0---------+----0-------------+---------------+-----------------+
e e e q q e +e e e e e e e e +e e e q e e e +e e e e e e e e
+-------11-9-4-+------------------+----------------+------------------+
|-0-0-0-11-9-4-|------------------|----------------|------------------|
|--------------|----2-2-2-2-2-2-3-|----3-3-5-5-5---|------7---7-----7-|
+--------------+------------------+--------------0-+----0---0---0-0---+
+e e e q q e +e e q e e e e e e e q q e +e e e e e e e e
+--------12-11-9-+----------------+-------12-11-7-+------------------+
|--------12-11-9-|----------------|-------12-11-7-|------------------|
|----------------|------7---------|---------------|----5-5-5-5-5-5-5-|
+----0-0---------+----0---0-0-0-0-+-0-0-0---------+------------------+
e e e q q e +e e e e e e e e +e e e q e e e e e e e e e e e 5
+-------11-9-4-+------------------+----------------+-------------------+
|-0-0-0-11-9-4-|------------------|----------------|*-----------------*|
|--------------|----2-2-2-2-0---3-|----2-3-5-3-5-7-|*-----------------*|
+--------------+--------------3---+----------------+--0-0-0-0-0-0-0-0--+
e e e e e e e e e e e e e e e e 2 e e e e e e e e
+-----------------------+-------------------+-----------------+
|-----------12X--------|*-----------------*|-----------------|
|----------------12X-0-|*-2-2-2-2-2-2-2-2-*|-3-3-3-3-3-3-3-3-|
+-0-0-0-0-0-------------+-------------------+-----------------+
e e e e e e e e e e e e e e e e e e e q q e e e e e e e e e e
+-----------------+-----------------+-------12-11-9-+-------------------+
|-----------------|-----------------|-------12-11-9-|-R-----------------|
|-------------5-7-|-----------------|---------------|-----7-7-7-7-7-7-7-|
+-3-3-3-3-3-3-----+-0-0-0-0-0-0-0-0-+-0-0-0---------+---0---------------+
e e e q q e e e e e e e e e e e e q q e +e e e e e e e e
+-------12-11-9-+-----------------+-------12-11-7-+------------------+
|-------12-11-9-|-R---------------|-------12-11-7-|------------------|
|-7-7-7---------|-----7-7-7-7-7-7-|-7-7-7---------|----5-5-5-5-5-5-5-|
+---------------+---0-------------+---------------+------------------+
e e e q q e +e e e e e e e e +e e e q e e e +e e e e e e e e
+-------11-9-4-+------------------+----------------+------------------+
|-0-0-0-11-9-4-|------------------|----------------|------------------|
|--------------|----2-2-2-2-0---3-|----2-3-5-3-2---|------7---7-------|
+--------------+--------------3---+--------------0-+----0---0---0-0-0-+
e e e q q e +e e e e e e e e e e e q q e +e e e e e e e e
+-------12-11-9-+------------------+-------12-11-7-+------------------+
|-------12-11-9-|------------------|-------12-11-7-|------------------|
|---------------|------7-7-7-7-7-7-|-7-7-7---------|----5-5-5-5-5-5-5-|
+-0-0-0---------+----0-------------+---------------+------------------+
e e e q q e +e e e e e e e e +e e e q e e e e e e e e e e e 2
+-------11-9-4-+------------------+----------------+-------------------+
|-0-0-0-11-9-4-|------------------|----------------|*-----------------*|
|--------------|----2-2-2-2-0---3-|----2-3-5-3-5---|*-----------------*|
+--------------+--------------3---+--------------0-+--0-0-0-0-0-0-0-0--+
e e e e e e e e e e e e e e e e e e e e e e e e e e e e e e e e
+-----------------+-----------------+-----------------+-7-----7-----7---+
|-7-7-7---7-7-----|-7-7-7-7-7-7-7-7-|-5-5-5-5-5-5-5-5-|---5-5---5-5---5-|
|-------0-----0-0-|-----------------|-----------------|-----------------|
+-----------------+-----------------+-----------------+-----------------+
e e e e e e e e e e e e e e e e e e e e e e e e e e e q e e e
+-----------------+-----------------+-----------------+---------------+
|-----------------|-----------------|-----------------|---------------|
|-5-5-5-5-5-5-5-5-|-5-5-5-5-5-5-5-2-|-3-3-3-3-3-3-2H3-|-3-2-0-3-3-3-3-|
+-----------------+-----------------+-----------------+---------------+
e e e e e e e e e e e e e e e e e e q e e e e q e q e e e
+-----------------+---------------------+---------------+-------------+
|-----7-----5-7---|-------(5)/7---------|-5-5-5-5-5-5-5-|-5-5-5-5-5-5-|
|-0-0---0-0-----0-|-0-0-0-------0-0-0-0-|---------------|-------------|
+-----------------+---------------------+---------------+-------------+
e e e e e e e e e e e e e e e e e e e e e e e e e e e e e e e e
+-----------------+-----------------+-----------------+-----------------+
|-----------------|---------R---R---|-----------------|-----------------|
|-5-5-5-5-5-5-5-5-|-5-5-5-5---5---5-|-3-3-3-3-3-3-3---|-3---3-3-3-3-3-3-|
+-----------------+-----------------+---------------3-+---3-------------+
e e e e e e e e e e e e e e e e 4 e e q e q e e q e e e e e
+------------------+------------------+-------------+---------------+
|*-----------------|-----------------*|-------------|---------------|
|*-----7-----7-----|-7-----7-----5-7-*|-2-2-2-2-2-2-|-2-2-2-2-2-2-2-|
+--0-0---0-0---0-0-+---0-0---0-0------+-------------+---------------+
e e e e e e e e e e e e e e e e e e e e e e e e e e e q q e
+-----------------+-----------------+-----------------+-------12-11-9-+
|-----------------|-----------------|-----------------|-------12-11-9-|
|-3-3-3-3-3-3-3-3-|-5-5-------------|-----------------|---------------|
+-----------------+-----5-5-5-5-5-5-+-0-0-0-0-0-0-0-0-+-0-0-0---------+
e e e e e e e e e e e q q e e e e e e e e e e e e q q e
+-----------------+-------12-11-9-+-----------------+-------12-11-7-+
|-R---------------|-------12-11-9-|-R---------------|-------12-11-7-|
|---7-7-7-7-7-7-7-|-7-7-7---------|---7-7-7-7-7-7-7-|-7-7-7---------|
+-----------------+---------------+-----------------+---------------+
e e e e e e e e e e e q q e +e e e e e e e e +e e e q e e e
+-----------------+-------11-9-4-+------------------+----------------+
|-R---------------|-0-0-0-11-9-4-|------------------|----------------|
|---5-5-5-5-5-5-5-|--------------|----2-2-2-2-0---3-|----2-3-5-3-5-7-|
+-----------------+--------------+--------------3---+----------------+
+e e e e e e e e e e e q q e e e e e e e e e e e e q q e
+------------------+-------12-11-9-+-----------------+-------12-11-7-+
|------------------|-------12-11-9-|-R---------------|-------12-11-7-|
|------------------|---------------|---7-7-7-7-7-7-7-|-7-7-7---------|
+----0-0-0-0-0-0-0-+-0-0-0---------+-----------------+---------------+
e e e e e e e e e e e q q e +e e e e e e e e +e e e q e e e
+-----------------+-------11-9-4-+------------------+----------------+
|-R---------------|-0-0-0-11-9-4-|------------------|----------------|
|---5-5-5-5-5-5-5-|--------------|----2-2-2-2-0---3-|----2-3-5-3-5-7-|
+-----------------+--------------+--------------3---+----------------+
e e e e e e e e e e e q e e e e e e e e e e e e e e q e e e
+-----------------+---------------+-----------------+---------------+
|-----------------|---------------|-----------------|---------------|
|-----7---7-------|-------9---5-7-|-----7---7-------|-------9---5-7-|
+-0-0---0---0-0-0-+-0-0-0---7-----+-0-0---0---0-0-0-+-0-0-0---0-----+
e e q e e e e e e e e e e e e e q e e e e e e q e e e
+-------------+-----------------+-------------+---------------+
|-------------|-----------------|-------------|---------------|
|-5-5-5-5-5-5-|-5-5-5-5-5-5-5-5-|-2-2-2-2-2-2-|-3-3-3---------|
+-------------+-----------------+-------------+-------3-3-3-3-+
e e e e e e e e e e e q e e e e e e e e e e e e e e q e e e
+-----------------+---------------+-----------------+---------------+
|-----------------|---------------|-----------------|---------------|
|-----7---7-------|-7-----9---5-7-|-----7---7-------|-7-----9---5-7-|
+-0-0---0---0-0-0-+---0-0---7-----+-0-0---0---0-0-0-+---0-0---7-----+
e e e e e q e q q e e e e e e e e e e e e e e q e e e
+---------------+-----------+-----------------+---------------+
|-----------7---|-7---------|-----------------|---------------|
|-5-5-5-5-5---5-|---5-5-7-5-|-2-2-2-2-2-2-2-2-|-3-3-3---------|
+---------------+-----------+-----------------+-------3-3-3-3-+
e e e e e e e e e e e e e e e e e e e e e e e e e e e q e e e
+-----------------+-----------------+-----------7-----+---------------+
|-----------7-----|-7-----7-----7---|-5-5-5-5-5---5-5-|-5-5-5-5-5-5---|
|-0-0-0-0-0---0-0-|---0-0---0-0---0-|-----------------|-------------3-|
+-----------------+-----------------+-----------------+---------------+
e e e e e e e e e e e e e e e e e e e e e e e e e e e e e e e e
+-----------------+-----------------+-----------------+-----------------+
|-----------------|-------4-R-------|-----------------|-----------------|
|-5-5-5-5-5-5-5-5-|-5-5-5-----5-5-2-|-3-3-3-3-3-3-3-3-|-3-3-3-3-3---3---|
+-----------------+-----------------+-----------------+-----------3---3-+
e e e e e e e e e e e q e q e e e e e e e e e e e q e e e
+-----------------+---------------+-----------------+---------------+
|-----7-----------|-5H7-7-7-7-7X-|-5-5-5-5-5-5-5-5-|-5-5-5-5-5-5---|
|-0-0---0-0-0-0-0-|---------------|-----------------|-------------3-|
+-----------------+---------------+-----------------+---------------+
e e e e e e e e e q q e e e e e e e e e e e e e e q e e e
+-----------------+-------------+-----------------+---------------+
|-----------------|-----7-------|-----------------|---------------|
|-5-5-5-5-5-5-5-5-|-5-7---5-5-5-|-3-3-3-3-3-3-3-3-|-3---3-3---3---|
+-----------------+-------------+-----------------+---3-----3---3-+
e e e e e e e e 2 e e e e e e e e 2 e e e e e e e e e e e e e e e e
+-------------------+-------------------+-----------------+-------------------+
|*-----------------*|*-5-5-5-5-5-5-5-5-*|-----------------|-----------R-------|
|*-----------------*|*-----------------*|-5-5-5-5-5-5-5-5-|-5-5-5-7X---5-5-0-|
+--5-5-5-5-5-5-5-5--+-------------------+-----------------+-------------------+
e e e e e e e e e e q e e q w +Q q q e e e e e e e e e
+-----------------+-------------+---+----12-11-9-+-----------------+
|-----------------|-------------|---|----12-11-9-|-R---------------|
|-3-3-3-3-3-3-3-3-|-3---3-------|---|------------|-----------------|
+-----------------+---3---3-3-3-+-0-+------------+---0-0-0-0-0-0-0-+
e e e q q e e e e e e e e e e e e q q e e e e e e e e e
+-------12-11-9-+-----------------+-------12-11-7-+-----------------+
|-------12-11-9-|-R---------------|-------12-11-7-|-R---------------|
|---------------|-----------------|---------------|---5-5-5-5-5-5-5-|
+-0-0-0---------+---0-0-0-0-0-0-0-+-0-0-0---------+-----------------+
e e e q q e +e e e e e e e e +e e e q e e e +e e e e e e e e
+-------11-9-4-+------------------+----------------+------------------+
|-0-0-0-11-9-4-|------------------|----------------|------------------|
|--------------|----2-2-2-2-0---3-|----2-3-5-3-5-7-|------------------|
+--------------+--------------3---+----------------+----0-0-0-0-0-0-0-+
e e e q q e e e e e e e e e e e e q q e +e e e e e e e e
+-------12-11-9-+-----------------+-------12-11-7-+------------------+
|-------12-11-9-|-R---------------|-------12-11-7-|------------------|
|---------------|---7-7-7-7-7-7-7-|-7-7-7---------|----5-5-5-5-5-5-5-|
+-0-0-0---------+-----------------+---------------+------------------+
e e e q q e +e e e e e e e e +e e e q e e e
+-------11-9-4-+------------------+------------------+
|-0-0-0-11-9-4-|------------------|------------------|
|--------------|----2-2-2-2-0---3-|----2-3-5-3-5-7X-|
+--------------+--------------3---+------------------+
==========================================================================
__ Created using the Bass Tab Creator
+|oo|+ by Mario D'Alessio (motcid!marble!dalessio)
+|oo|+
|| NOTES:
||
|| Capital durations are dotted notes
|| (equal to 1.5 times the duration value)
||
|| x
|| +----+ +----+
_ || _ |*--*+ = MEASURE |4:--| = TIME
_||_// |*--*+ REPEATS |4:--| SIGNATURES
| [] | +----+ x=# of repeats +----+
| || |
/ [] + = TIE ^ = TRIPLET > = BEND
______/ H = HAMMER ON = SLIDE TO FRET R = Rest
P = PULL OFF X = SLIDE TO NOWHERE ~ = Trill
==========================================================================
For corrections or questions on the tabs, contact the author. If no e-mail
address is included, contact Frank for guitar tabs or Mario for bass tabs,
addresses below.
For remarks, suggestions or additions on the tab 'archive', contact:
Frank (guitar) or Mario (bass)
([email protected]) ([email protected])
HAPPY PLAYING!!




Ваше мнение



Капча