Rush: Double Agent
>From the album Counterparts (Atlantic Records)
Copyright 1993 Core Music Publishing
Music by Lee and Lifeson
Lyrics by Peart
Comments/corrections to Sean Jones
Transcribed by Don Dianetti and Sean Jones
e e e e e e e e e e e e e e e e e e e e e e e e e e e e e e
---||------------------|-----------------|-----------------|---------------
4:-||*-----------------|-----------------|-----------------|---------------
4:-||*-5-5-5-5-5-5-5-5-|-----------------|-----------------|---------3-3---
---||------------------|-6-6-6-6-6-6-6-6-|-3-3-3-3-3-3-3-3-|-1-1-1-1-------
e e e e e q q e e e e q q e e e e q q e e e e q e e e e e e
-----||-------------|-------------|-------------|-r-------------|----------
----*||-------------|-------------|-------------|-e-------------|----------
--3-*||-5-5-5-5-5-5-|-------------|-------------|-s-------3---3-|-5-5-5----
1----||-------------|-6-6-6-6-6-6-|-3-3-3-3-3-3-|-t-1-1-1---1---|----------
q q e e e e q q e e e e q e e e e e e q e e e q Q e q q e e
------|-------------|---------------|-r-------------|------r---|---r-------
------|-------------|---------------|-e-------------|-3:---e---|---e-------
5-5-5-|-------------|---------------|-s-------3-3-3-|-4:---s---|---s-------
------|-6-6-6-6-6-6-|-3-3-3-3-3-5-3-|-t-1-1-1-------|----0-t-0-|-0-t-0-0---
q h H e s e s e e e e s e s e e e s s s e s e e e e s e s
|---r-|----|---------------|---------------|-----------------||------------
|---e-|----|---------------|---------------|-----------------||*-----------
|---s-|----|---------------|---------------|-----3-3-3-3-----||*-----------
|-0-t-|-15|-0-0-0-0-0-3-5-|-3-0-0-0-0-3-5-|-3-5---------3-5-||--3-0-0-0---
e e e e s e s e e e s s s e s e e e 3x s s s e s e s s e 3x
------|---------------|------------------||-||---------------------||------
------|---------------|-----------------*||-||*-------------------*||-2:---
------|---------------|-----3-3-3-3-----*||-||*-------------6-5-3-*||-4:---
0-3-5-|-3-0-0-0-0-3-5-|-3-5---------3-5--||-||--5-5-3-5-5-3--------||------
e s E e e s e s e e e e s e s e e e s s s e s e e e e s e s e
--------|------------------|---------------|-----------------|-------------
--------|-3:---------------|---------------|-----------------|-------------
--------|-4:---------------|---------------|-----3-3-3-3-----|-------------
1-1-1-1-|----0-0-0-0-0-3-5-|-3-0-0-0-0-3-5-|-3-5---------3-5-|-3-0-0-0-0---
e e e s e s e e e H +H e s e s e e e e s e s e e e H +H
----|---------------|---|---||----------------|---------------|---|--------
----|---------------|---|---||*---------------|---------------|---|--------
----|---------------|---|---||*-4-4-4-4-4-4-4-|-4-4-4-4-4-4-4-|---|--------
3-5-|-3-0-0-0-0-3-5-|-5-|---||----------------|---------------|-5-|--------
e s e s e e e e s e s e e e e s e s e e e e s e s e e
-||-||-----------------||---------------|---------------||-----------------
*||-||*---------------*||---------------|---------------||*----------------
*||-||*-4-4-4-4-4-4-4-*||-2-2-2-2-2-2-2-|-2-2-2-2-2-3-2-||*----------------
-||-||-----------------||---------------|---------------||--5-5-5-5-5-5----
e e e e q q e e e e q q e e e e q e e e e e e q e e e e e
---||----------------|-------------|---------------|-r-------------|-------
--*||-4:-------------|-------------|---------------|-e-------------|-------
--*||-4:-5-5-5-5-5-5-|-------------|---------------|-s-------3---3-|-5-5---
5--||----------------|-6-6-6-6-6-6-|-3-3-3-3-3-5-3-|-t-1-1-1---1---|-------
e q q e e e e e e e e e e e e q e e e e e e q e e e e e e q q e
--------|---------r-------|---------------|-r-------------|----------------
--------|---------e-------|---------------|-e-------------|----------------
5-5-5-5-|---------s-------|---------------|-s-------3---3-|-5-5-5-5-5-5----
--------|-6-6-6-6-t-6-8-6-|-3-3-3-3-3-5-3-|-t-1-1-1---1---|----------------
e e e q q e q e q e e e e e e q e e e e e e e e q e e q q e e
|-------------|---r---------|-r-------------|-----r---r-----|--------------
|-------------|---e---------|-e-------------|-----e---e-----|--------------
|-------------|---s---------|-s-------3---3-|-5-5-s-5-s-5-5-|--------------
|-6-6-6-6-6-6-|-3-t-3-3-5-3-|-t-1-1-1---1---|-----t---t-----|-6-6-6-6-8----
e e q q e e e e e e q e e e e s e s e e e e s e s e e e s s
--|-------------|-r-------------|------------------|---------------|-------
--|-------------|-e-------------|-3:---------------|---------------|-------
--|-------------|-s-------3-3-3-|-4:---------------|---------------|-------
6-|-3-3-3-3-5-3-|-t-1-1-1-------|----0-0-0-0-0-3-5-|-3-0-0-0-0-3-5-|-3-5---
s e s e e e e s e s e e e e s e s e e e s s s e s e e e
------------||----------------|---------------|------------------||-||-----
------------||*---------------|---------------|-----------------*||-||*----
3-3-3-3-----||*---------------|---------------|-----3-3-3-3-----*||-||*----
--------3-5-||--3-0-0-0-0-3-5-|-3-0-0-0-0-3-5-|-3-5---------3-5--||-||-----
s s s e s e s s e 3x e s E e e s e s e e e e s e s e e e s
-------------------||------------|------------------|---------------|------
------------------*||-2:---------|-3:---------------|---------------|------
------------6-5-3-*||-4:---------|-4:---------------|---------------|------
5-5-3-5-5-3--------||----1-1-1-1-|----0-0-0-0-0-3-5-|-3-0-0-0-0-3-5-|-3----
s s e s e e e e s e s e e e H +H e s e s e e e e s e s e e e
--------------|---------------|---|---||----------------|------------------
--------------|---------------|---|---||*---------------|------------------
--3-3-3-3-----|---------------|---|---||*-4-4-4-4-4-4-4-|-4-4-4-4-4-4-4----
5---------3-5-|-3-0-0-0-0-3-5-|-5-|---||----------------|------------------
H +H e s e s e e e e s e s e e e e s e s e e e e s
|---|----||-||-----------------||---------------|---------------||---------
|---|---*||-||*---------------*||---------------|---------------||*--------
|---|---*||-||*-4-4-4-4-4-4-4-*||-2-2-2-2-2-2-2-|-2-2-2-2-2-3-2-||*--------
|-5-|----||-||-----------------||---------------|---------------||--5-5----
e s e e e e e e q e q e e e q e e e e e e q e e e e e e q e
-----------||----------------|---------------|---------------|-------------
----------*||-4:-------------|---------------|---------------|-------------
----------*||-4:-5-5-5-5-5-8|---------------|---------------|---------3---
5-5-5-5-5--||----------------|-6-6-6-6-6-8-6-|-3-3-3-3-3-5-3-|-1-1-1-1-----
e e e e e q e q e e e q e e e e e e q e e e e e e q e e e e s s
----|-----r-------|-----r---------|-----r---------|-r-------------|--------
----|-----e-------|-----e---------|-----e---------|-e-------------|--------
--3-|-5-5-s-5-5-8|-----s---------|-----s---------|-s-------3---3-|-5-5-5--
1---|-----t-------|-6-6-t-6-6-8-6-|-3-3-t-3-3-5-3-|-t-1-1-1---1---|--------
e q e e e e e e q e e e q e q e e e e e e q e e e e e e q e e e
r---------|-----r---------|---r---------|---------------|-----r------------
e---------|-----e---------|---e---------|---------------|-----e------------
s-5-5-5-5-|-----s---------|---s---------|---------3---3-|-5-5-s-5-5-5-5----
t---------|-6-6-t-6-6-8-6-|-3-t-3-3-5-3-|-1-1-1-1---1---|-----t------------
e q q e e e e q q e e e e e e q e e e q Q e q q e e q h
|-------------|-------------|---------------|------r---|---r-----|---r-|---
|-------------|-------------|---------------|-3:---e---|---e-----|---e-|---
|-------------|-------------|---------3-3-3-|-4:---s---|---s-----|---s-|---
|-6-6-6-6-8-6-|-3-3-3-3-5-3-|-1-1-1-1-------|----0-t-0-|-0-t-0-0-|-0-t-|---
e s^s^s^s^s^s^s^s^s^q
r---------------------|---
e---------------------|---
s-------------------7|---
t-5-4-3-5-4-3-5-4-3---|---
s s s e s e e e s s s e s e e e s s s e s e e e s s s e s e e e
||------------------|-----------------|-----------------|-----------------|---
||*-----------------|-----------------|-----------------|-----------------|---
||*-------------3-5-|-3---------------|-------------3-5-|-3---------------|---
||--3-5-5-5-5-5-----|---5-5-5-5-5-3-0-|-3-5-5-5-5-5-----|---5-5-5-5-5-3-0-|---
e s e s e e e e s e s e e e e s e s e e e s s s e e s e e
--------------|----------------||----------------|-----------------|----
--------------|---------------*||*-----------1-3-|-1-0-------------|----
--------------|---------------*||*-3-3-3-3-3-----|-----3-3-3-3-1-1-|----
1-1-1-1-1-1-1-|-1-1-1-1-1-1-1--||----------------|-----------------|----
H +H e s e s e e e e s e s e e e H +H e s e s e e e
--|---||----------------|---------------|---|----||-||---------------------
--|---||*---------------|---------------|---|---*||-||*--------------------
--|---||*-4-4-4-4-4-4-4-|-4-4-4-4-4-4-4-|---|---*||-||*-4-4-4-4-4-4-4------
5-|---||----------------|---------------|-5-|----||-||---------------------
e s e s e e e e s e s e e e e s e s e e e e s e s e e e
-||---------------|---------------||-----------------||---------------|----
*||---------------|---------------||*---------------*||---------------|----
*||-2-2-2-2-2-2-2-|-2-2-2-2-2-3-2-||*---------------*||---------------|----
-||---------------|---------------||--5-5-5-5-5-5-5--||-0-0-0-0-0-3-5-|----
e s e s e e e s s s e s e e e e s e s e e e e s e s e e e s s
--------------|-----------------||----------------|---------------|--------
--------------|-----------------||*---------------|---------------|--------
--------------|-----3-3-3-3-----||*---------------|---------------|--------
3-0-0-0-0-3-5-|-3-5---------3-5-||--3-0-0-0-0-3-5-|-3-0-0-0-0-3-5-|-3-5----
s e s e e e s s s e s e s s e 3x e s E e e s e s e e e
-------------||-||---------------------||------------|---------------------
------------*||-||*-------------------*||-2:---------|-3:------------------
3-3-3-3-----*||-||*-------------6-5-3-*||-4:---------|-4:------------------
--------3-5--||-||--5-5-3-5-5-3--------||----1-1-1-1-|----0-0-0-0-0-3-5----
e s e s e e e s s s e s e e e e s e s e e e e s e s e e e s s
|---------------|-----------------|---------------|---------------|--------
|---------------|-----------------|---------------|---------------|--------
|---------------|-----3-3-3-3-----|---------------|---------------|--------
|-3-0-0-0-0-3-5-|-3-5---------3-5-|-3-0-0-0-0-3-5-|-3-0-0-0-0-3-5-|-3-5----
s e s e e e e s e s e e e h
------------|---------------|----r-|------------------------------------------
------------|---------------|-2:-e-|------------------------------------------
3-3-3-3-----|---------------|-4:-s-|------------------------------------------
--------3-5-|-3-0-0-0-0-3-5-|----t-|------------------------------------------

===========================================================================
== TABLATURE EXPLANATION ==
===========================================================================
---------- ---------- ----t---
----5h8--- Hammeron ----(8)--- Ghost ----6--- Tap
---------- ---------- Note --------
----5p8--- Pulloff ---------- --------
---------- ---------- -----p--
----5/8--- Slide Up -----x---- Dead -----7-- Pop
---------- ---------- Note --s-----
----58--- Slide Down ---------- --5----- Slap
---------- ||------|| Repeat --------
----5~~~-- Vibrato ||*----*|| ---5^--- Bend
---------- ||*----*|| --------
---------- ||------|| --------
---------- ---------- --------
-4:------- Time ---------- --------
-4:------- Signature ---------- --------
---------- ---------- --------
Rhythm:
w = whole note W = dotted whole
h = half note H = dotted half
q = quarter note Q = dotted quarter
e = eighth note E = dotted eighth
s = sixteenth note S = dotted sixteenth
t = 32nd note T = dotted 32nd
x = 64th note X = dotted 64th
^ = triplet
===========================================================================
== Created with a demo version of BUCKET O' TAB ==
== tablature creation software for Windows ==
== For more info email [email protected] ==
===========================================================================




Ваше мнение



Капча