Digital Man By: Rush
======================
e q e+H+q e q e+q e e e e e e e q e+Q+q e e e e q e q e q e e e e
+------+-----------+---------------------+-----------------+-------------------+
|12:---|---2-------|---2-----4-4-4-2-----|---4-------4---4-|-------------------|
| 8:---|-----------|-------4---------4---|---------4---4---|-----2-2-4-4-2-----|
+----0-+-2-------0-+-2-----------------0-+-2---------------+-5-5-----------5-0-+
q e+H+q e q e+e e e e e e e e e q e+q e e e e e e e
+-----------+-----------------------+---------------2-1---+
|---2-------|---2---2---4-4-4-2-----|---2---2-4-2-------4-|
|-----------|---------4---------4---|-------------4-------|
+-2-------0-+-2-------------------0-+-2-------------------+
e e e e e e e e e e e e q e+H+q e q e+Q e e e e e e
+-------------------------+-----------+-------------------+
|-2---2-------------------|---2-------|---2---4-4-4-2-----|
|---4---4-3-2---------2-4-|-----------|---------------4---|
+-------------5-5-5-5-----+-2-------0-+-2---------------0-+
e e e e e e e e e e e e q q q q q q q e+H+q e q e+q e e e e e e e
+-------2-----------2-----+-14-13-11-9-7-6-+-----------+---------------2-----+
|-4-2-----4-2-4-2-----4-2-|----------------|---2-------|---2---2-4-4-4---4-2-|
|-----4-----------4-------|----------------|-----------|---------------------|
+-------------------------+----------------+-2-------0-+-2-------------------+
e e e e e e q q q q q q q q q H H +H+Q+q e q e+H+q e
+-------2-----------+-------------+-----+----------+-----------+
|-4-4-4---4-2-4-2---|-------------|---2-|--------2-|---4-----4-|
|-----------------5-|-4-2---------|-----|----------|-----------|
+-------------------+-----5-4-5-4-+-2---+----------+-2---------+
q e q e e e e Q q e+H+Q +H+Q+q e q e+H+Q q e q e q e q e q e+H+q e
+-----------------+---------+----------+---------+-----------------+-----------+
|-----------------|---2-----|----------|---4-----|-----------------|---2-------|
|-----2-2-4-2-4---|---------|----------|---------|-----2-2-4-4-5-5-|-----------|
+-5-5-----------0-+-2-------+--------0-+-2-------+-5-5-------------+-2-------0-+
q e+q e e e e e e e q e+q e e e e e e e e e e e e e e e e e e e
+---------------------+---------2---2-------+-------------------------+
|---2-----4-4-4-2-----|---4---4---4---4-2---|-------------------------|
|-------4---------4---|-------------------5-|-4-5-4-2-------------2-4-|
+-2-----------------0-+-2-------------------+---------5-5-4-4-5-5-----+
q e+H+q e q e+Q e e e e e e q e+Q+q e q e q e q e q e q e
+-----------+-------------------+---------------+-----------------+
|---2-------|---2---4-4-4-2---2-|---4-------4-4-|-----------------|
|-----------|---------------4---|---------4-----|-----2-2-4-4-----|
+-2-------0-+-2-----------------+-2-------------+-5-5---------0-0-+
q e q e q e q e q e q e q e q e Q q e Q Q Q Q e e e q e
+-----------------+-----------------+-----------+---------------+
|---2-R-2-R-2-R---|---2-R-4-R-4-2---|-4-4---4-2-|---------------|
|-----------------|---------------4-|-----4-----|-5---------2-|
+-2-------------0-+-2---------------+-----------+-----2-2-2-5---+
q e q e q e q e q e q e q e Q q e q e q e q e q e q e q e q e
+-----------------+---------------+-----------------+-----------------+
|-----R-------R---|---------2-2---|-----2-2-----2-4-|-----2-2---------|
|-5-5---5-5-5---5-|-5-5-4-4-------|-----------------|-------------2-4-|
+-----------------+-------------5+-2-2-----2-2-----+-2-2-----2-2-----+
q e q e q e q e q e q e q e q e q e q e q e q e q e q e q e q e
+-----------------+-----------------+-----------------+-----------------+
|-----R-------R---|-----------------|-----2-2-----2-4-|-----2-2-----2---|
|-5-5---5-5-5---5-|-5-5-4-4-2-2-----|-----------------|---------------4-|
+-----------------+-------------5-5-+-2-2-----2-2-----+-2-2-----2-2-----+
q e q e q e q e q e q e Q Q q e q e+q e q e q e q e+q e Q
+-----------------+-------------+-----------------+---------------+
|-----R-------R---|---------2-2-|-----2-2-----2-4-|-----2-2-----2-|
|-5-5---5-5-5---5-|-5-5-4-4-----|-----------4-----|-4---------4---|
+-----------------+-------------+-2-2-------------+---2-----------+
q e q e q e q e q e q e q e Q q e q e q e q e q e q e q e q e
+-----------------+---------------+-----------------+-----------------+
|-----R-------R---|---------2-2---|-----2-2-----2-4-|-----2-2---------|
|-5-5---5-5-5---5-|-5-5-4-4-------|-----------------|-------------2-4-|
+-----------------+-------------5+-2-2-----2-2-----+-2-2-----2-2-----+
q e q e q e q e Q Q Q Q q e+H+q e q e+Q e e e e e e q e+Q e e e e q
+-----------------+---------+-----------+-------------------+-----------------+
|-----R-------R---|---------|---2-------|---2---4-4-4-2-----|---2---------2-4-|
|-5-5---5-5-5---5-|-5-4-----|-----------|---------------4---|---------2-4-----|
+-----------------+-----5-4-+-2-------0-+-2---------------0-+-2-----5---------+
e e e e e e e e e e e e q e+H+q e q e+Q e e e e e e q q q q q q
+-2-2-4-6-4-2-1-----------+-----------+-------------2-----+-2-1---------+
|---------------4-2-2-----|---2-------|---2---4-2-----4-2-|-----4-2-----|
|---------------------5-4-|-----------|-----------4-------|---------5-4-|
+-------------------------+-2-------0-+-2-----------------+-------------+
q q q q q q H H +H+Q+q e q e+H+q e q e q e q e q e q e q e q e+q e
+-7-6-4-2-1---+-----+----------+-----------+-----------------+-----------------+
|-----------4-|---2-|----------|---4-----4-|-----------------|---2-R-2-R-2-----|
|-------------|-----|----------|-----------|-----2-2-4-4-----|-----------------|
+-------------+-2---+--------0-+-2---------+-5-5---------0-0-+-2-------------0-+
q e q e q e q e H+q e+Q q q q q q q q e+H+q e q e+Q e e e e e e
+-----------------+---------+-------------+-----------+-------------------+
|---2-R-4-R-4-2---|-4---2---|-------------|---2-------|---2---4-4-4-2-----|
|---------------4-|---------|---------2-4-|-----------|---------------4---|
+-2---------------+---------+-5-5-5-5-----+-2-------0-+-2---------------0-+
e e+Q e e e e e e e e e e e e e e e e e e q e+H+q e q e+q e q e q e
+-------------------+-2---2-------------------+-----------+-----------------+
|---4-----------2-4-|---4---4-4-2---2---------|---2-------|---2---2-4-4-2---|
|---------2-4-5-----|-------------4---4-2-----|-----------|---------------4-|
+-2-----5-----------+---------------------5-4-+-2-------0-+-2---------------+
q e+Q+q e q e q e q e q e q e q e q e q e q e q e q e q e q e
+---------------+-----------------+-----------------+-----------------+
|---4-------4-4-|-----------------|---2-R-2-R-2-R---|---2-R-4-R-4-2---|
|---------4-----|-----2-2-4-4-----|-----------------|---------------4-|
+-2-------------+-5-5---------0-0-+-2-------------0-+-2---------------+
Q q e q e e q e q e e e e Q q e q e q e q e q e q e q e Q
+---------2-+-------------------+-----------------+---------------+
|-4-4---4---|-4-R-4-2-2---------|-----R-------R---|---------------|
|-----4-----|-----------------2-|-5-5---5-5-5---5-|-5-5-4-4-2-2---|
+-----------+-----------5-5-5---+-----------------+-------------5+
q e q e q e q e q e q e q e q e q e q e q e q e q e q e q e Q
+-----------------+-----------------+-----------------+---------------+
|-----2-2-----2-4-|-----2-2---------|-----R-------R---|---------2-2---|
|-----------------|-------------2-4-|-5-5---5-5-5---5-|-5-5-4-4-----5|
+-2-2-----2-2-----+-2-2-----2-2-----+-----------------+---------------+
q e q e q e q e q e q e q e q e q e q e q e q e q e q e Q Q
+-----------------+-----------------+-----------------+-------------+
|-----2-2-----2-4-|-----2-2---------|-----R-------R---|---------2-2-|
|-----------------|-------------2-4-|-5-5---5-5-5---5-|-5-5-4-4-----|
+-2-2-----2-2-----+-2-2-----2-2-----+-----------------+-------------+
q e q e q e q e q e q e q e Q q e q e q e q e q e q e q e q e
+-----------------+-2-2-----------+-----------------+-----------------+
|-----2-2-----2-4-|-----5-5-4-4-2-|-----R-------R---|-----------------|
|-----------------|---------------|-5-5---5-5-5---5-|-5-5-4-4-2-2-----|
+-2-2-----2-2-----+---------------+-----------------+-------------5-5-+
q e q e q e q e q e q e q e q e q e q e q e q e q e q e Q Q
+-----------------+-----------------+-----------------+-------------+
|-----2-2-----2-4-|-----2-2---------|-----R-------R---|-------------|
|-----------------|---------------2-|-5-5---5-5-5---5-|-5-5-4-4-2---|
+-2-2-----2-2-----+-2-2-----2-2-5---+-----------------+-----------5+
half time
q e q e q e q e q e Q Q Q s s s s s s s s s s s s s s s s
+-----------------+-----------+-----------------------------------+
|-----2-2-----2-4-|-----2-2-2-|4:---------------------------------|
|-----------------|-----------|4:-5-5-5-5-5-5-5-5-5-5-5-5-5-5-5-5-|
+-2-2-----2-2-----+-2-2-------+-----------------------------------+
s s s s s s s s s s s s s s s s s s s s s s s s s s s s s s s s
+---------------------------------+---------------------------------+
|---------------------------------|---------------------------------|
|---------------------------------|---------------------------------|
+-0-0-0-0-0-0-0-0-0-0-0-0-0-0-0-0-+-3-3-3-3-3-3-3-3-3-3-3-3-3-3-3-3-+
s s s s s s s s s s s s s s s s s s s s s s s s s s s s s s s s
+---------------------------------+---------------------------------+
|---------------------------------|---------------------------------|
|-5-5-5-5-5-5-5-5-5-5-5-5-5-5-5-5-|---------------------------------|
+---------------------------------+-0-0-0-0-0-0-0-0-0-0-0-0-0-0-0-0-+
s s s s s s s s s s s s s s s s s s s s s s s s s s s s s s s s
+---------------------------------+---------------------------------+
|---------------------------------|---------------------------------|
|---------------------------------|-5-5-5-5-5-5-5-5-5-5-5-5-5-5-5-5-|
+-3-3-3-3-3-3-3-3-3-3-3-3-3-3-3-3-+---------------------------------+
s s s s s s s s s s s s s s s s s s s s s s s s s s s s s s s s q q
+---------------------------------+---------------------------------+-------+
|---------------------------------|---------------------------------|2:-----|
|---------------------------------|---------------------------------|4:-5-5-|
+-0-0-0-0-0-0-0-0-0-0-0-0-0-0-0-0-+-3-3-3-3-3-3-3-3-3-3-3-3-3-3-3-3-+-------+
a tempo
H+Q+q e q e q e q e q e q e q e q e q e q e q e q e q e
+------------+-------------2-2-+-----------------+-----------------+
|12:---------|-----2-2-4-4-----|-4-4-2-2---------|-----------------|
| 8:-5-------|-----------------|---------2-2-4-4-|-5-5-5-5-5-5-5-5-|
+----------0-+-2-2-------------+-----------------+-----------------+
q e q e q e q e q e q e q e q e q e q e q e q e q e q e q e q e
+-----------------+-------------2-2-+-----------------+-----------------+
|-----------------|-----2-2-4-4-----|-4-4-2-2---------|-----------------|
|-4-4-4-4---------|-----------------|---------2-2-4-4-|-5-5-5-5-5-5-5-5-|
+---------5-5-4-4-+-2-2-------------+-----------------+-----------------+
q e q e q e q e q e q e q e e e e q e q e q e q e q e q e q e q e
+-----------------+-------------2---2-+-----------------+-----------------+
|-----------------|-----2-2-4-4---4---|-4-4-2-2---------|-----------------|
|-4-4-4-4---------|-------------------|---------2-2-4-4-|-5-5-5-5-5-5-5-5-|
+---------5-5-4-4-+-2-2---------------+-----------------+-----------------+
q e q e+q e q e q e q e q e e e e q e q e q e q e q e q e q e q e
+-----------------+-------------2---2-+-----------------+-----------------+
|-----------------|-----2-2-4-4---4---|-4-4-2-2---------|-----------------|
|-4-4-4-----------|-------------------|---------2-2-4-4-|-5-5-5-5-5-5-5-5-|
+-------5---5-4-4-+-2-2---------------+-----------------+-----------------+
q e q e+q e q e q e q e q e q e q e q e q e q e q e q e q e q e
+-----------------+-------------2-2-+-----------------+-----------------+
|-----------------|-----2-2-4-4-----|-4-4-2-2---------|-----------------|
|-4-4-4-----------|-----------------|---------2-2-4-4-|-5-5-5-5-5-5-5-5-|
+-------5---5-4-4-+-2-2-------------+-----------------+-----------------+
q e q e+q e q e q e q e q e q e q e q e q e q e q e q e q e q e
+-----------------+-------------2-2-+-----------------+-----------------+
|-----------------|-----2-2-4-4-----|-4-4-2-2---------|-----------------|
|-4-4-4-----------|-----------------|---------2-2-4-4-|-5-5-5-5-5-5-5-5-|
+-------5---5-4-4-+-2-2-------------+-----------------+-----------------+
q e q e+q e q e q e q e q e q e q e q e q e q e q e q e q e q e
+-----------------+-------------2-2-+-----------------+-----------------+
|-----------------|-----2-2-4-4-----|-4-4-2-2---------|-----------------|
|-4-4-4-----------|-----------------|---------2-2-4-4-|-5-5-5-5-5-5-5-5-|
+-------5---5-4-4-+-2-2-------------+-----------------+-----------------+
q e q e q e q e q e q e q e e e e q e e e e e e e e e e
+-----------------+-------------2---2-+-----------------------+
|-----------------|-----2-2-4-4---4---|-4-4-2---2-------------|
|-4-4-4-4---------|-------------------|-------4---------2---2-|
+---------5-5-4-4-+-2-2---------------+-----------5-5-5---5---+
q e q e q e q e q e q e q e q e q e q e q e e e e q e q e q e q e
+-----------------+-----------------+-------------2---2-+-----------------+
|-----------------|-----------------|-----2-2-4-4---4---|-4-4-2-2---------|
|-5-5-5-5-5-5-5-5-|-4-4-2-2---------|-------------------|---------2-2-4-4-|
+-----------------+---------5-5-4-4-+-2-2---------------+-----------------+
q e q e q e q e q e q e q e q e q e q e q e q e q e q e q e q e
+-----------------+-----------------+-------------2-2-+-----2-2---------+
|-----------------|-----------------|-----2-2-4-4-----|-4-4-----4-4-4-2-|
|-5-5-5-5-5-5-5-5-|-4-4-2-2---------|-----------------|-----------------|
+-----------------+---------5-5-4-4-+-2-2-------------+-----------------+
q e q e q e q e q e q e q e q e q e q e q e e e e
+-----------------+-----------------+-------------2---2-+
|-----------------|-----------------|-----2-2-4-4---4---|
|-5-5-5-5-5-5-5-5-|-4-4-4-4---------|-------------------|
+-----------------+---------5-5-4-4-+-2-2---------------+
q e e e e e e e e e e q e q e q e q e q e q e q e Q q e q e q e q e
+-----2---2-------------+-----------------+---------------+-----------------+
|-4-4---4---4-2---------|-----R-------R---|---------2-2---|-----2-2-----2-4-|
|---------------4-2-----|-5-5---5-5-5---5-|-5-5-4-4-------|-----------------|
+-------------------5-4-+-----------------+-------------5+-2-2-----2-2-----+
q e q e q e q e q e q e q e q e q e q e q e q e q e q e q e q e
+-----------------+-----------------+-----------------+-----------------+
|-----2-2-----2-2-|-----R-------R---|---------2-2-----|-----2-2-----2-4-|
|-----------------|-5-5---5-5-5---5-|-5-5-4-4---------|-----------------|
+-2-2-----2-2-----+-----------------+-------------5-4-+-2-2-----2-2-----+
q e q e q e q e q e q e q e q e q e q e q e q e q e q e q e q e
+-----2-2-1-1-----+-----------------+-----------------+-----------------+
|-------------4-4-|-----R-------R---|---------2-2-----|-----2-2-----2-4-|
|-----------------|-5-5---5-5-5---5-|-5-5-4-4---------|-----------------|
+-2-2-------------+-----------------+-------------5-4-+-2-2-----2-2-----+
q e q e q e q e q e q e q e q e q e q e q e Q q e q e+q e q e
+-2-2-1-1---------+-----------------+---------------+-----------------+
|---------4-4-2-2-|-----R-------R---|---------2-2---|-----2-2-----2-4-|
|-----------------|-5-5---5-5-5---5-|-5-5-4-4-------|-----------4-----|
+-----------------+-----------------+-------------5+-2-2-------------+
+q e q e+q e q e q e q e q e q e q e q e q e Q q e q e q e q e
+------------------+-----------------+---------------+-----------------+
|------2-2-----2---|-----R-------R---|---------2-2---|-----2-2-----2-4-|
|----4-------4---4-|-5-5---5-5-5---5-|-5-5-4-4-----5|-----------------|
+------------------+-----------------+---------------+-2-2-----2-2-----+
half time
q e q e Q Q s s s s s s s s s s s s s s s s
+-------------+------------------------------------+
|-----2---2-2-|*4:---------------------------------|
|-------------|*4:-5-5-5-5-5-5-5-5-5-5-5-5-5-5-5-5-|
+-2-2---2-----+------------------------------------+
s s s s s s s s s s s s s s s s s s s s s s s s s s s s s s s s 8
+---------------------------------+----------------------------------+
|---------------------------------|---------------------------------*|
|---------------------------------|---------------------------------*|
+-0-0-0-0-0-0-0-0-0-0-0-0-0-0-0-0-+-3-3-3-3-3-3-3-3-3-3-3-3-3-3-3-3--+
==========================================================================
Created using the Bass Tab Creator
__ by Mario D'Alessio (motcid!marble!dalessio)
+|oo|+ modified by Erik Habbinga ([email protected])
+|oo|+ Notes: w = Whole h = Half q = Quarter
|| e = 8th s = 16th t = 32nd x = 64th
||
|| Capital durations are dotted notes
|| (equal to 1.5 times the duration value)
||
|| #
|| +----+ +----+
_ || _ |*--*+ = MEASURE |4:--| = TIME
_||_// |*--*+ REPEATS |4:--| SIGNATURES
| [] | +----+ (#=Num Repeats) +----+
| || |
/ [] + = TIE ^ = TRIPLET > = BEND
______/ H = HAMMER ON = SLIDE TO FRET R = Rest
P = PULL OFF X = SLIDE TO NOWHERE ~ = Trill




Ваше мнение



Капча