Different Strings By: Rush
================================
H +w +H +h +w +w +w +w +w +w +w +w +w +w
+-----+------+------+------+------+----+----+----+----+----+----+----+----+----+
|3:-R-|4:----|3:----|2:----|4:----|----|----|----|----|----|----|----|----|----|
|4:---|4:----|4:----|4:----|4:----|----|----|----|----|----|----|----|----|----|
+-----+------+------+------+------+----+----+----+----+----+----+----+----+----+
+w +w +w +w +w +w +w +w +w +w +w +w +w +w +w
+----+----+----+----+----+----+----+----+----+----+----+----+----+----+----+
|----|----|----|----|----|----|----|----|----|----|----|----|----|----|----|
|----|----|----|----|----|----|----|----|----|----|----|----|----|----|----|
+----+----+----+----+----+----+----+----+----+----+----+----+----+----+----+
+w +w +w +H +w +H +w +w +w +w +w +H +H
+----+----+----+------+------+------+------+----+----+----+----+------+----+
|----|----|----|3:----|4:----|3:----|4:----|----|----|----|----|3:----|----|
|----|----|----|4:----|4:----|4:----|4:----|----|----|----|----|4:----|----|
+----+----+----+------+------+------+------+----+----+----+----+------+----+
+w +H +w +H +h w w w h h w w w w w w
+------+------+------+------+------+-----+---+---+-----+---+---+---+---+---+---+
|4:----|3:----|4:----|3:----|2:----|4:---|-R-|---|---R-|---|-R-|---|---|---|-R-|
|4:----|4:----|4:----|4:----|4:----|4:---|---|-3-|-5---|---|---|-3-|-5-|---|---|
+------+------+------+------+------+---5-+---+---+-----+-5-+---+---+---+-5-+---+
w e+h s s q w w H e e e+h Q w w h q q e+h s s q w H q
+---+-----------+---+---+-------+-------+---+---+-------+-----------+---+-----+
|---|---------7-|---|-R-|-----R-|-----9-|---|-R-|-------|---------7-|---|-----|
|-3-|-5---5-7---|---|---|-3-3---|-5-----|---|---|-3-2-3-|-5---5-7---|---|-5-5-|
+---+-----------+-5-+---+-------+-------+-5-+---+-------+-----------+-5-+-----+
h q q H e e w q q q q w e e q e e q e q e Q e q e Q q w
+-------+-------+---+---------+---+-------------+------------+-11-9-14----+---+
|-------|-------|---|-------R-|---|-----3-----5-|-------11-9-|---------14-|---|
|-3-2-3-|-5-5-3-|-2-|---------|-2-|---3-----5---|---9-7------|------------|-2-|
+-------+-------+---+-1-1-3---+---+-1-----3-----+-5----------+------------+---+
q q q q w q q e e q Q q e q e e e e+h h+Q e q e e e e e e
+---------+---+-----------+---------+------------+-5-----+-4-5-4---------+
|-------R-|---|---------5-|-------9-|-7-11-9-7---|-----5-|-------7-5-----|
|---------|-2-|---3---5---|---9-7---|------------|-------|-----------8-7-|
+-1-1-3---+---+-1---3-----+-5-------+------------+-------+---------------+
h+Q e +q Q Q Q Q Q Q e e H +e e e e e e e e h+Q e
+-------+--------+---5---+-----------+-----+--------------------+-------+
|-------|------7-|3:-----|4:-------R-|3:---|4:------------R---R-|-------|
|-----7-|----5---|4:-----|4:-5---5---|4:-7-|4:----7-7-5-5---3---|-3-----|
+-5-----+--------+-----3-+-----5-----+-----+--------------------+-----3-+
q q s s e e e e e e+h e +q q e e q Q Q Q Q w +w w w w
+---------------+-----------+------------+-------+-----+-----+----+---+---+---+
|-------------R-|-----------|------7---R-|3:-----|-----|4:---|----|---|---|---|
|-2-2-2-3-2-----|---------7-|----5---5---|4:-3---|-5-2-|4:---|----|---|-5-|-3-|
+-----------3---+-5-5-5-----+------------+-----3-+-----+---5-+----+-5-+---+---+
w w w w w w w H q Q e h w w H q Q e h h+Q e w
+---+---+---+---+---+---+---+-----+-----5-+---+---+-----+-----5-+-------+---+
|---|---|---|---|---|---|---|-----|---5---|---|---|-----|---5---|-------|---|
|-5-|---|-5-|-3-|-5-|---|-5-|-3-3-|-5-----|---|-5-|-3-3-|-5-----|-------|-5-|
+-5-+-5-+---+---+---+-5-+---+-----+-------+-5-+---+-----+-------+-5---5-+---+
* * * *
H q Q e h w w w q q s q+E w w
+-----+-----5-+---+---+---+-----------+---+---+
|-----|---5---|---|---|---|-----------|---|---|
|-3-3-|-5-----|---|-5-|-3-|-3-5-5-5---|---|-5-|
+-----+-------+-5-+---+---+-----------+-5-+---+
* *
* = harmonic
==========================================================================
Created using the Bass Tab Creator
__ by Mario D'Alessio (motcid!marble!dalessio)
+|oo|+
+|oo|+ Notes: w = Whole h = Half q = Quarter
|| e = 8th s = 16th t = 32nd x = 64th
||
|| Capital durations are dotted notes
|| (equal to 1.5 times the duration value)
||
|| #
|| +----+ +----+
_ || _ |*--*+ = MEASURE |4:--| = TIME
_||_// |*--*+ REPEATS |4:--| SIGNATURES
| [] | +----+ (#=Num Repeats) +----+
| || |
/ [] + = TIE ^ = TRIPLET > = BEND
______/ H = HAMMER ON = SLIDE TO FRET R = Rest
P = PULL OFF X = SLIDE TO NOWHERE ~ = Trill




Ваше мнение



Капча