#----------------------------------PLEASE NOTE---------------------------------#
#This file is the author's own work and represents their interpretation of the #
#song. You may only use this file for private study, scholarship, or research. #
#------------------------------------------------------------------------------##
From [email protected] Sun Jun 12 21:37:40 1994
Return-Path:

To: [email protected]
Subject: Cold Fire TAB - RUSH
Status: RO

Extremely brief version of Cold Fire, off of _Counterparts_
Transcribed in Guitar for the Practicing Musician (2/94???)
Tony Zimmermann

8 16th's
----x--|----3---3----3--2--0---|---3--3--------------------------|
----x--|----3---3----3--3--3---|---3--3--------------------------|
----x--|----2---2----2--2--2---|---2--2----5-H-7--5--------------|
----x--|----2---2--------------|---2--2----5-H-7--5--------------|
----x--|----0---0--------------|---0--0--------------------------|
----x--|----0---0--------------|---0--0--------------------------|

Verses based on Fsus2 and Am(V)
----------|----------------5-------------------------------------|
----------|----------5-------------------------------------------|
-------0--|-------5-----5----------------------------------------|
-----3----|----7-------------------------------------------------|
---3------|------------------------------------------------------|
-1--------|--5---------------------------------------------------|

Chorus based on Fsus2, G, and Am7
----------------|---------------|--------------------------------|
----------------|---------------|--------------------------------|
-----------0----|-----------0---|------------0-------------------|
--------3-------|--------5------|---------7----------------------|
-----3----------|-----5---------|------7-------------------------|
--1-------------|---3-----------|---5----------------------------|




Ваше мнение



Капча