From: [email protected] (Jay)
Subject: TAB: Broon's Bane- Rush
Broon's Bane
------0-----------0-----------0----------0---------------------------
3-------3-----------3-----------3----------3-------------------------
----3-----------3-----------2----------2-----------------------------
--0-----------0-----------0------0---0-------------------------------
----------0-1---------1------------0---------0-----------------------
3-----------------------2--------------------------------------------
------0-----------0-----------0-----------0--------------------------
--------3-----------3-----------2-----------3------------------------
----3-----------3-----------2-----------3----------------------------
--0-----------0-----------2-------2---3------------------------------
----------0-1---------0-0---------------------0----------------------
3-----------------------------------0--------------------------------
------0-----------0-----------0-----------0--------------------------
--------3-----------3-----------3-----------3------------------------
----3-----------3-----------2-----------2----------------------------
--0-----------0-----------0-------0---0-------0----------------------
----------0-1---------1-------------0--------------------------------
3-----------------------2--------------------------------------------
------0-----------0-----------0-----------1--------------------------
--------3-----------3---3-------3---3-------3---2--------------------
----3-----------3-----------3-----------1-------2--------------------
--0-----------0-----------3-----------3---------2--------------------
----------0-1---------0-0---------0-1---------0-0--------------------
3--------------------------------------------------------------------
5---5-----------5-----8-----8-7-5-----5------------------------------
6-6---6-------6---6-------5---------5--------------------------------
7-----------7-----------5---------5----------------------------------
0-------0-----------0-7-------6-7-------0----------------------------
----------0----------------------------------------------------------
---------------------------------------------------------------------
5-----5-----3-----3-----2-----2-----------2--------------------------
----4---4-------3---3-------3---3-----------3------------------------
--3-----------3-----------4-------------4----------------------------
----------5-5---------5---------------4------------------------------
3-----------------------2---------2-----------2----------------------
------------------------------------2--------------------------------
------1-----------1-----------0-----------0--------------------------
3-------3-----------3---2-------2---2-------2------------------------
----1-----------1-----------2-----------2----------------------------
--3-----------3-----------2-----------2------------------------------
1---------1-----------1-0---------0-----------0----------------------
------------1-----------------------0--------------------------------
------1-----------1-----------0-----------0-----------0-----------0--
3-------3-----------3---2-------2-----------2-----------3-----------3
----1-----------1-----------2-----------2-----------2-----------2----
--3-----------3-----------2-----------2-----------0-----------0------
1---------1-----------1-0---------0----------------------------------
------------1-----------------------3---------3-2---------2-1--------




Ваше мнение



Капча