Bravado By: Rush
========================
e e e e e e e e e e e q e e e e e e e e e e e e e e q e e e
+-------------------+---------------+-----------------+---------------+
|4:-----------------|---------------|-----------------|---------------|
|4:-3-3-3-3-3-3-3-3-|-3-3-3-3-3-2---|-5-5-5-5-5-5-5-5-|-5-5-5-7-7-5-7-|
+-------------------+-------------3-+-----------------+---------------+
e e e e e e e e e e e q e e e e e e e e e e e e e e e e e e e
+-----------------+---------------+-----------------+-----------------+
|-----------------|---------------|-----------------|-----------------|
|-----------------|---------------|-----7-----------|-----------------|
+-5-5-5-5-5-5-5-5-+-5-5-5-5-7-5-3-+-0-0---0-0-0-0-0-+-0-0-2-3-5-3-2-0-+
e e e e e e e e e e e q e e e e e e e e e e e e e e q e e e
+-----------------+---------------+-----------------+---------------+
|-----------------|---------------|-----------------|---------------|
|-3-3-3-3-3-3-3-3-|-3-3-3-3-3-2---|-5-5-5-5-5-5-5-5-|-5-5-5-7-7-5-7-|
+-----------------+-------------3-+-----------------+---------------+
e e e e e e e e e e e q e e e e e e e e e e e e e e e e e e e
+-----------------+---------------+-----------------+-----------------+
|-----------------|---------------|-----------------|-----------------|
|-----------------|---------------|-----7-----7-----|-----------------|
+-5-5-5-5-5-5-5-5-+-5-5-5-5-7-5-3-+-0-0---0-0---0-0-+-0-0-0-0-0-2-3-5-+
e e e e e e e e e e e e e e e e e e e e e e e e e e e e e e e e
+-----------------+-----------------+-----------------+-----------------+
|-----------------|-----------------|-----------------|-----------------|
|-3-3-3-3-3-3-3-3-|-3-3-3-3-3-3-3-3-|-5-5-5-5-5-5-5-5-|-5-5-5-5-5-5-5-5-|
+-----------------+-----------------+-----------------+-----------------+
e e e e e e e e e e e e e e e e e e e e e e e e e e e e e e e e
+-----------------+-----------------+-----------------+-----------------+
|-----------------|-----------------|-----------------|-----------------|
|-----------------|-----------------|-5-5-5-5-5-5-5-5-|-5-5-5-5-5-5-5-5-|
+-5-5-5-5-5-5-5-5-+-5-5-5-5-5-5-5-5-+-----------------+-----------------+
e e e e e e e e e e e e e e e e e e e e e e e e e e e e e e e e
+-----------------+-----------------+-----------------+-----------------+
|-----------------|-----------------|-----------------|-----------------|
|-3-3-3-3-3-3-3-3-|-3-3-3-3-3-3-3-3-|-----------------|-----------------|
+-----------------+-----------------+-5-5-5-5-5-5-5-5-+-5-5-5-5-5-5-5-5-+
e e e e e e e e e e e e e e e e e e e e e e e e e e e e e e e e
+-----------------+-----------------+-----------------+-----------------+
|-----------------|-----------------|-----------------|-----------------|
|-----------------|-----------------|-----7-----------|-----------------|
+-3-3-3-3-3-3-3-3-+-3-3-3-3-3-3-3-2-+-0-0---0-0-0-0-0-+-0-0-0-0-0-0-0-2-+
e e e e e e e e e e e e e e e e e e e e e e e e e e e e e e e e
+-----------------+-----------------+-----------------+-----------------+
|-----------------|-----------------|-----------------|-----------------|
|-----------------|-----------------|-----7-----------|-----------------|
+-3-3-3-3-3-3-3-3-+-3-3-3-3-3-3-3-2-+-0-0---0-0-0-0-0-+-0-0-0-0-0-2-3-5-+
e e e e e e e e e e e e e e e e e e e e e e e e e e e e e e e e
+-----------------+-----------------+-----------------+-----------------+
|-----------------|-----------------|-----------------|-----------------|
|-3-3-3-3-3-3-3-3-|-3-3-3-3-3-3-3-3-|-5-5-5-5-5-5-5-5-|-5-5-5-5-5-5-5-5-|
+-----------------+-----------------+-----------------+-----------------+
e e e e e e e e e e e e e e e e e e e e e e e e e e e e e e e e
+-----------------+-----------------+-----------------+-----------------+
|-----------------|-----------------|-----------------|-----------------|
|-----------------|-----------------|-5-5-5-5-5-5-5-5-|-5-5-5-5-5-5-5-5-|
+-5-5-5-5-5-5-5-5-+-5-5-5-5-5-5-5-5-+-----------------+-----------------+
e e e e e e e e e e e q e e e e e e e e e e e e e e e e e e e
+-----------------+---------------+-----------------+-----------------+
|-----------------|---------------|-----------------|-----------------|
|-3-3-3-3-3-3-3-3-|-3-3-3-3-3-2---|-----------------|-----------------|
+-----------------+-------------3-+-5-5-5-5-5-5-5-5-+-5-5-5-5-5-7-5-7-+
e e e e e e e e e e e e e e e e e e e e e e e e e e e e e e e e
+-----------------+-----------------+-----------------+-----------------+
|-----------------|-----------------|-----------------|-----------------|
|-----------------|-----------------|-----7-----------|-----------------|
+-3-3-3-3-3-3-3-3-+-3-3-3-3-3-3-3-2-+-0-0---0-0-0-0-0-+-0-0-0-0-0-0-2-2-+
e e e e e e e e e e e e e e e e e e e e e e e e e e e e e e e e
+-----------------+-----------------+-----------------+-----------------+
|-----------------|-----------------|-----------------|-----------------|
|-----------------|-----------------|-----7-----------|-----------------|
+-3-3-3-3-3-3-3-3-+-3-3-3-3-3-5-3-2-+-0-0---0-0-0-0-0-+-0-0-0-0-0-2-3-5-+
e e e e e e e e e e e e e e e e e e e e e e e e e e e q e e e
+-----------------+-----------------+-----------------+---------------+
|-----------------|-----------------|-----------------|---------------|
|-3-3-3-3-3-3-3-3-|-3-3-3-3-3-3-2---|-5-5-5-5-5-5-5-5-|-5-5-5-7-7-5-7-|
+-----------------+---------------3-+-----------------+---------------+
e e e e e e e e e e e e e e e e e e e e e e e e e e e e e e e e
+-----------------+-----------------+-----------------+-----------------+
|-----------------|-----------------|-----------------|-----------------|
|-----------------|-----------2-----|-----7-----------|-----------------|
+-5-5-5-5-5-5-5-5-+-5-5-5-5-5---5-3-+-0-0---0-0-0-0-0-+-0-0-2-3-5-3-2-0-+
e e e e e e e e e e e e e e e e e e e e e e e e +e s s e e s s s s e e
+-----------------+-----------------+---------------5-+----4-5-----------------+
|-----------------|-----------------|-----------------|--------7-5-5-7-5-4-----|
|-3-3-3-3-3-3-3-3-|-3-3-3-3-3-3-2---|-5-5-5-5-5-5-5---|--------------------5-7-|
+-----------------+---------------3-+-----------------+------------------------+
e e e e e e e e e e e e e e e e e e e e e e e e e e e e e e e e
+-----------------+-----------------+-----------------+-----------------+
|-----------------|-----------------|-----------------|-----------------|
|-----------------|-----------------|-----7-----7-----|-7---------------|
+-5-5-5-5-5-5-5-5-+-7-7-7-5-5-7-5-3-+-0-0---0-0---0-0-+---0-0-0-0-2-3-5-+
e e e e e e e e e e e e e e e e e e e e e e e e e e e e e e e e
+-----------------+-----------------+-----7-----------+-----------------+
|-----------------|-----------------|-----------------|-----------------|
|-3-3-3-3-3-3-3-3-|-3-3-3-3-3-3-2---|-5-5---5-5-5-5-5-|-5-5-5-5-5-7-5-7-|
+-----------------+---------------3-+-----------------+-----------------+
e e e e e e e e e e e e e e e e e e e e e e e e e e e e e e e e
+-----------------+-----------------+-----------------+-----------------+
|-----------------|-----------------|-----------------|-----------------|
|-----------------|-----------------|-5-5-5-5-5-5-5-5-|-5-5-5-5-5-5-5-5-|
+-5-5-5-5-5-5-5-5-+-5-5-5-5-5-5-5-5-+-----------------+-----------------+
e e e e e e e e e e e e e e e e e e e e e e e e e e e e e e e e
+-----------------+-----------------+-----------------+-----------------+
|-----------------|-----------------|-----------------|-----------------|
|-3-3-3-3-3-3-3-3-|-3-3-3-3-3-3-3---|-----------------|-----------------|
+-----------------+---------------3-+-5-5-5-5-5-5-5-5-+-5-5-5-5-5-7-5-7-+
e e e e e e e e e e e e e e e e e e e e e e e e e e e e e e e e
+-----------------+-----------------+-----------------+-----------------+
|-----5-----------|-----------------|-----------------|-----------------|
|-----------------|-----------------|-----7-----------|-----------------|
+-3-3---3-3-3-3-3-+-3-3-3-3-3-5-3-2-+-0-0---0-0-0-0-0-+-0-0-0-0-0-0-0-2-+
e e e e e e e e e e e e e e e e e e e e e e e e e e e e e e e e
+-----------------+-----------------+-----------------+-----------------+
|-----------------|-----------------|-----------------|-----------------|
|-----------------|-----------------|-----7-----------|-----------------|
+-3-3-3-3-3-3-3-3-+-3-3-3-3-3-5-3-2-+-0-0---0-0-0-0-0-+-0-0-0-0-0-2-3-5-+
e e e e e e e e e e e e e e e e e e e e e e e e e e e e e e e e
+-----------------+-----------------+-----------------+-----------------+
|-----------------|-----------------|-----------------|-----------------|
|-3-3-3-3-3-3-3-3-|-3-3-3-3-3-3-3---|-----------------|-----------------|
+-----------------+---------------3-+-5-5-5-5-5-5-5-5-+-5-5-5-5-5-7-5-7-+
e e e e e e e e e e e e e e e e e e e e e e e e e e e e e e e e
+-----------------+-----------------+-----------------+-----------------+
|-----------------|-----------------|-----------------|-----------------|
|-----------------|-----------------|-----7-----------|-----------------|
+-3-3-3-3-3-3-3-3-+-3-3-3-3-3-5-3-2-+-0-0---0-0-0-0-0-+-0-0-0-0-0-2-3-5-+
e e e e e e e e e e e e e e e e e e e e e e e e e e e e e e e e
+-----------------+-----------------+-----------------+-----------------+
|-----------------|-----------------|-----------------|-----------------|
|-3-3-3-3-3-3-3-3-|-3-3-3-3-3-3-2---|-----------------|-----------------|
+-----------------+---------------3-+-5-5-5-5-5-5-5-5-+-5-5-5-5-5-7-5-7-+
e e e e e e e e e e e e e e e e e e e e e e e e e e e e e e e e
+-----------------+-----------------+-----------------+-----------------+
|-----5-----------|-----------------|-----------------|-----------------|
|-----------------|-----------------|-----7-------7---|-----------------|
+-3-3---3-3-3-3-3-+-3-3-3-3-3-5-3-2-+-0-0---0-0-0---0-+-0-0-0-0-0-2-3-5-+
e e e e e e e e e e e e e e e e e e e e e e e e e e e e e e e e
+-----------------+-----------------+-----------------+-----------------+
|-----------------|-----------------|-----------------|-----------------|
|-3-3-3-3-3-3-3-3-|-3-3-3-3-3-3-2---|-----------------|-----------------|
+-----------------+---------------3-+-5-5-5-5-5-5-5-5-+-7-7-7-5-5-5-7-5-+
e e e e e e e e e e e e e e e e e e e e e e e e e e e e e e e e
+-----------------+-----------------+-----------------+-----------------+
|-----5-----------|-----------------|-----------------|-----------------|
|-----------------|-----------------|-----7-----------|-----------------|
+-3-3---3-3-3-3-3-+-3-3-3-5-7-5-3-2-+-0-0---0-0-0-0-0-+-0-0-0-0-0-0-0-2-+
e e e e e e e e e e e e e e q e e e e e e e e e e e e e e e e
+-----------------+---------------+-----------------+-----------------+
|-----------------|---------------|-----------------|-----------------|
|-----------------|---------------|-----7-----------|-----7-----------|
+-3-3-3-3-3-3-3-2-+-3-3-3-3-3-3-5-+-0-0---0-0-0-0-0-+-0-0---0-0-0-0-2-+
e e e e e e e e e e e q e e e e e e e e e s s e e e e e e e s s e
+-----------------+---------------+-------------------+-------------------+
|-----------------|---------------|-------------------|-------------------|
|-----------------|---------------|-----7-------7-----|-----7-------7-----|
+-3-3-3-3-3-3-3-2-+-3-3-3-5-5-3-5-+-0-0---0-0-0---7-0-+-0-0---0-0-0---7-0-+
e q e e q e e e e q e e e w +w
+-------------+---------------+---+----+
|-------------|---------------|---|----|
|-------------|---------------|---|----|
+-3-3-3-3-3-3-+-3-3-3-5-5-3-5-+-0-+----+
==========================================================================
Created using the Bass Tab Creator
__ by Mario D'Alessio (motcid!marble!dalessio)
+|oo|+
+|oo|+ Notes: w = Whole h = Half q = Quarter
|| e = 8th s = 16th t = 32nd x = 64th
||
|| Capital durations are dotted notes
|| (equal to 1.5 times the duration value)
||
|| #
|| +----+ +----+
_ || _ |*--*+ = MEASURE |4:--| = TIME
_||_// |*--*+ REPEATS |4:--| SIGNATURES
| [] | +----+ (#=Num Repeats) +----+
| || |
/ [] + = TIE ^ = TRIPLET > = BEND
______/ H = HAMMER ON = SLIDE TO FRET R = Rest
P = PULL OFF X = SLIDE TO NOWHERE ~ = Trill




Ваше мнение



Капча