Beneath, Between, and Behind
By Rush
Transcribed by Sean Jones
Any comments, questions, or corrections, please contact sean at [email protected]
Last updated 9-12-98
H q q H w w H q q e q e q e q e q q q
||--3 mm.--|-r----|---r-|-r-|-r-|-r----||------------|-----------|------
||--rest---|-e----|---e-|-e-|-e-|-e----||*-----------|---4-4-----|------
||---------|-s-12|-0-s-|-s-|-s-|-s-12||*-4-4-5-5-7-|-7-----7-5-|-4----
||---------|-t----|---t-|-t-|-t-|-t----||------------|-----------|------
e q e q e q e q q q e q e q e q e q q e e e Q q+ w q e q
--------|-----------|-----------|-----------|-----------|----||---------
--------|---4-4-5---|-----------|---4-4-5-7-|-7-5-7-----|---*||---------
4-5-5-7-|-7-------5-|-4-4-5-5-7-|-7---------|-------0-0-|---*||-4-4-5---
--------|-----------|-----------|-----------|-----------|----||---------
e q e q e q q q e q e q e q e q q q e q e q e q e q q e e
----|-----------|-----------|-----------|-----------|-----------|-------
----|---4-4-----|-----------|---4-4-5---|-----------|---4-4-5-7-|-7-5---
5-7-|-7-----7-5-|-4-4-5-5-7-|-7-------5-|-4-4-5-5-7-|-7---------|-------
----|-----------|-----------|-----------|-----------|-----------|-------
e Q q+ q q e e e e Q Q q+ e Q q q Q Q q+ e Q q q Q Q q+
------|-------------||--------|----------||-------|-------7-|-5-4---|---
7-----|-------7-----||*---5---|---5-4---*||---5---|---5-4---|-----7-|---
--0-0-|---0-0---0-0-||*-5---5-|-------7-*||-5---5-|---------|-------|---
------|-------------||--------|----------||-------|---------|-------|---
e Q q q Q Q q+ e Q q q Q Q q+ e Q q q Q Q q+ e Q q q Q
--------||--------|----------||-------|-------7-|-5-4---|---------|-----
--5-4---||*---5---|---5-4---*||---5---|---5-4---|-----7-|---5-4-5-|-7---
------7-||*-5---5-|-------7-*||-5---5-|---------|-------|---------|-----
--------||--------|----------||-------|---------|-------|---------|-----
Q q+ e Q q q q H H q q H w q H q e q e q
----|---------||---r-|-r----|---r-|-r-|---r-|--3 mm.--||-----------|----
5-4-|-----4---||---e-|-e----|---e-|-e-|---e-|--rest---||-----------|----
----|---7---7||-0-s-|-s-12|-0-s-|-s-|-0-s-|---------||-4-4-5-5-7-|----
----|---------||---t-|-t----|---t-|-t-|---t-|---------||-----------|----
e q e q q q e q e q e q e q q q e q e q e q e q q e e e Q q+
----------|-----------|-----------|-----------|-----------|-------------
--4-4-----|-----------|---4-4-5---|-----------|---4-4-5-7-|-7-5-7-------
7-----7-5-|-4-4-5-5-7-|-7-------5-|-4-4-5-5-7-|-7---------|-------0-0---
----------|-----------|-----------|-----------|-----------|-------------
q q e e e e q e q e q e q e q q q e q e q e q e q q q e q
|-------------|-----------|-----------|-----------|-----------|---------
|-------------|-----------|---4-4-----|-----------|---4-4-5---|---------
|---0-0-0-0-0-|-4-4-5-5-7-|-7-----7-5-|-4-4-5-5-7-|-7-------5-|-4-4-5---
|-------------|-----------|-----------|-----------|-----------|---------
e q e q e q q e e e Q q+ h h Q Q q+ e Q q q Q Q q+ e Q
----|-----------|-----------|-----||--------|----------||-------|-------
----|---4-4-5-7-|-7-5-7-----|--/9||*---5---|---5-4---*||---5---|---5---
5-7-|-7---------|-------0-0-|-----||*-5---5-|-------7-*||-5---5-|-------
----|-----------|-----------|-----||--------|----------||-------|-------

q q Q Q q+ e Q q q Q Q q+ e Q q q Q Q q+ e Q q q Q Q q+ e
--7-|-5-4---|---------|-------|---------|-------|---------|-------|-----
4---|-----7-|---5-4---|---5---|---5-4-5-|---5---|---5-4---|---5---|-----
----|-------|-------7-|-5---5-|---------|-5---5-|-------7-|-5---5-|-----
----|-------|---------|-------|---------|-------|---------|-------|-----
Q q q Q Q q+ e Q q q Q Q q+ e Q q q e e e e e e q w e e
----7-|-5-4---|---------|-------|---------||---------------|-r-|--------
5-4---|-----7-|---5-4-5-|-7-5-4-|-----4---||-------2---2-3-|-e-|--------
------|-------|---------|-------|---7---7||-3-3-3---3-----|-s-|-5-5----
------|-------|---------|-------|---------||---------------|-t-|--------
e e e e q w e e e e e e q w e e e e e e q e e e e q q q e
----------|-r-|-------2---2-3-|-r-|-------4---4-5-|-r-7-7-7-7---|-------
--4---4-5-|-e-|-3-3-3---3-----|-e-|-5-5-5---5-----|-e---------7-|-------
5---5-----|-s-|---------------|-s-|---------------|-s-----------|-3-3---
----------|-t-|---------------|-t-|---------------|-t-----------|-------
q e q e e e e q q q e q e q e q e q q q e q e q e q e e e q
------|-------------|-----------|-----------|-----2---3-|---5---5-3-----
2-2-3-|-3-5-5---5---|-----4---5-|---7---7---|-3-3---3---|-3---3-----3---
------|-------5---3-|-5-5---5---|-5---5---7|-----------|---------------
------|-------------|-----------|-----------|-----------|---------------
e e e q e q e e e e e e q e e e e e e q w Q Q q+ e Q q
|-------4---5-|---7-7-7-7-5---||----------------|-r--||-------|---------
|-5-5-5---5---|-5-----------7-||*---------------|-e-*||---5---|---5-4---
|-------------|---------------||*-0-0-0-4-4-4-5-|-s-*||-5---5-|---------
|-------------|---------------||----------------|-t--||-------|---------
q q H H q q H Q Q q+ q q q q Q Q q+ q q
--||----r-|-r-----||---r-|--3 mm.--||--------|---------|-------|--------
--||*---e-|-e----*||---e-|--rest---||*-------|---------|-------|--------
7-||*-0-s-|-s-12*||-0-s-|---------||*-0-0-0-|---0-----|-0-0-0-|---0----
--||----t-|-t-----||---t-|---------||--------|-----3-3-|-------|--------
q q Q Q q+ q q q q Q Q q+ w Q Q q+ e Q q q Q Q q+
----|-------|---------|-------|----||-||--------|----------||-------|---
----|-------|---------|-------|---*||-||*---5---|---5-4---*||---5---|---
----|-0-0-0-|---0-----|-5-5-7-|---*||-||*-5---5-|-------7-*||-5---5-|---
3-3-|-------|-----3-0-|-------|----||-||--------|----------||-------|---
e Q q q Q Q q+ e Q q q Q Q q+ e Q q q Q Q q+ e Q q q Q
------7-|-5-4---|---------||--------|----------||-------|-------7-|-5---
--5-4---|-----7-|---5-4---||*---5---|---5-4---*||---5---|---5-4---|-----
--------|-------|-------7-||*-5---5-|-------7-*||-5---5-|---------|-----
--------|-------|---------||--------|----------||-------|---------|-----
Q q+ e Q q q Q Q q+ e Q q q Q Q q+ e Q q q Q Q q+ e Q q
4---|---------|-------|---------||--------|----------||-------|---------
--7-|---5-4-5-|-7-5-4-|-----4---||*---5---|---5---5-*||---5---|---5-----
----|---------|-------|---7---7-||*-5---5-|-----5---*||-5---5-|-----5---
----|---------|-------|---------||--------|----------||-------|---------
q Q Q q+ e Q q q q e q e q e q e q q w+ w+ h q q
7-||--5-4---|----------||-5-5-4-4---|-----------|---|---|-----r-||------
--||*-----7-|---5-7---*||---------7-|-7-5-5-4---|---|---|-----e-||------
--||*-------|-------5-*||-----------|---------7-|-5-|---|---5-s-||------
--||--------|----------||-----------|-----------|---|---|-----t-||------

========================================================================
== TABLATURE EXPLANATION ==
========================================================================
---------- ---------- ----t---
----5h8--- Hammeron ----(8)--- Ghost ----6--- Tap
---------- ---------- Note --------
----5p8--- Pulloff ---------- --------
---------- ---------- -----p--
----5/8--- Slide Up -----x---- Dead -----7-- Pop
---------- ---------- Note --s-----
----58--- Slide Down ---------- --5----- Slap
---------- ||------|| Repeat --------
----5~~~-- Vibrato ||*----*|| ---5^--- Bend
---------- ||*----*|| --------
---------- ||------|| --------
---------- ---------- --------
-4:------- Time ---------- --------
-4:------- Signature ---------- --------
---------- ---------- --------
Rhythm:
w = whole note W = dotted whole
h = half note H = dotted half
q = quarter note Q = dotted quarter
e = eighth note E = dotted eighth
s = sixteenth note S = dotted sixteenth
t = 32nd note T = dotted 32nd
x = 64th note X = dotted 64th
^ = triplet
========================================================================
== Created with a demo version of BUCKET O' TAB ==
== tablature creation software for Windows ==
== For more info email [email protected] ==
========================================================================




Ваше мнение



Капча