#----------------------------------PLEASE NOTE---------------------------------#
#This file is the author's own work and represents their interpretation of the #
#song. You may only use this file for private study, scholarship, or research. #
#------------------------------------------------------------------------------##
Available Light By: Rush
================================
H +Q e e e e e e e e e e e e e Q e e e e e e e e e e e e e
+-----+----------------+-3---------------+-------------+---------3---3---+
|3:-R-|4:------3---5---|-----5---R---R---|-R---3---3---|-5---3-----------|
|4:---|4:----3---3---3-|---3---3---3---3-|---3---3---3-|---3---3---3---3-|
+-----+----------------+-----------------+-------------+-----------------+
Q e e e e e e e e e e e e e Q e e e e e e e e e e e e e Q e e e e e
+-------------+-3---------------+-------------+---------3---3---+-------------+
|-R---3---5---|-----5---R---R---|-R---3---3---|-5---3-----------|-5---3---5---|
|---3---3---3-|---3---3---3---3-|---3---3---3-|---3---3---3---3-|---3---3---3-|
+-------------+-----------------+-------------+-----------------+-------------+
e e e e e e e e Q e e e e e e e e e e e e e Q e e e e e
+-3---------------+-------------+---------3---3---+-------------+
|-----5---3---R---|-----3---3---|-5---3-----------|-5---3---5---|
|---3---3---3---3-|-5-3---3---3-|---3---3---3---3-|---3---3---3-|
+-----------------+-------------+-----------------+-------------+
e e e e e e e e Q e e e e e e e e e e e e e Q e e e e e
+-3---------------+-------------+---------3---3---+-------------+
|-----5---3---R---|-----3---3---|-5---3-----------|-5---3---5---|
|---3---3---3---3-|-5-3---3---3-|---3---3---3---3-|---3---3---3-|
+-----------------+-------------+-----------------+-------------+
e e e e e e e e Q e e e e e e e e e e e e e Q e e e e e
+-3---------------+-------------+---------3---3---+-------------+
|-----5---3---R---|-----3---3---|-5---3-----------|-5---3---5---|
|---3---3---3---3-|-5-3---3---3-|---3---3---3---3-|---3---3---3-|
+-----------------+-------------+-----------------+-------------+
e e e e e e e e Q e e e e e e e e e e e q Q Q e e e q e e e e e
+-3---------------+-------------+---------3---2-+---------+---------------+
|-----5---3---R---|-----3---3---|-5---3---------|---------|---------------|
|---3---3---3---3-|-5-3---3---3-|---3---3---3---|-0-2-----|---------------|
+-----------------+-------------+---------------+-----1-1-+-1-1-1-3-3-1-3-+
Q e e e e e e q e e e e e Q e e e e e e q e q e e Q e e e e e
+-------------+---------------+-------------+-------------+-------------+
|-------------|---------------|-------------|-------------|-------------|
|-0-2-2-2-----|---------------|-0-2-2-2-----|-------------|-0-2-2-2-----|
+---------1-1-+-1-1-1-3-3-1-3-+---------1-1-+-1-1-1-3-1-3-+---------1-1-+
e q e e e e e e e e e e e e e e q e e e e e e e e e e e e e
+---------------+-----------------+---------------+-----------------+
|---------------|-----------------|---------------|-----------------|
|-------3---2-3-|-0-0-0-2-2-2-----|---------------|-0-0-0-2-2-2-----|
+-1-1-1---3-----+-------------1-1-+-1-1-1-3-3-1-3-+-------------1-1-+
e q e e e e e e e e q e e e e q e e e e e e e e e e e e e
+---------------+---------------+---------------+-----------------+
|---------------|---------------|---------------|-----------------|
|-------3---2-3-|-0-0-0-2-2-----|---------------|-0-0-0-2-2-2-----|
+-1-1-1---3-----+-----------1-1-+-1-1-1-3-3-1-3-+-------------1-1-+
e e e e e e q e e e e e e e e e e e e e e e e e e e e e e e e
+---------------+---------------------------+-------------------------+
|-----R---------|6:-------5---5-----5---5-7-|-5-5-5-5-5-5-5---5---5-7-|
|---------3---2-|4:---------------5---5-----|---------------5---5-----|
+-1-1---1---3---+---3-3-3---3---3-----------+-------------------------+
e e e e e e e e e e s s e e e e e e e e e e e e e
+---------------------------+-------9---9-------------+
|-------5---5-----5---5-5-7-|-------------R-----------|
|---------------5---5-------|-7-7-7---7-------7---7-9-|
+-3-3-3---3---3-------------+---------------7---7-----+
e e e e e e e e e e e e e e e e e e e e e e e e e e e e e e e e e e e e
+-------9---9-------------+-------5-----------------+-------5-----------------+
|-------------R-----------|---------R---------------|---------R---------------|
|-7-7-7---7-------7---7-9-|-3-3-3-----3-3---3---3-5-|-3-3-3-----3-3---3---3-5-|
+---------------7---7-----+---------------3---3-----+---------------3---3-----+
e e e e e e e e e w+e Q e e e e e e e e e e e e e Q e e e e e
+-------------------+---------+---------------+-5---------------+-------------+
|4:-----------------|5:---R---|4:-----5---7---|-----7-------R---|-----5---5---|
|4:-----------------|4:-------|4:---5---5---5-|---5---5---5---5-|---5---5---5-|
+---3-3-3-3-3-3-3-3-+---3-----+---5-----------+---------3-------+-0-----------+
e e e e e e q Q e e e e e e e e e e e e e Q e e e e e
+---------------+-------------+-5---------------+-------------+
|-7---5-------R-|-----5---7---|-----7-------R---|-----5---5---|
|---5---5-5-7---|---5---5---5-|---5---5---5---5-|---5---5---5-|
+---------------+-5-----------+---------3-------+-0-----------+
e e e e e e e e Q e e e e e e e e e e e e e Q e e e e e
+---------5---5---+-------------+-5---------------+-------------+
|-7---5-----------|-----5---7---|-----7-------R---|-----5---5---|
|---5---5---5---5-|---5---5---5-|---5---5---5---5-|---5---5---5-|
+-----------------+-5-----------+---------3-------+-0-----------+
e e e e e e e e Q e e e e e e e e e h Q e e e e e e e e e h
+-----------------+-------------+-----------+-------------+-----------+
|-7---5-5-4-----7-|-----5---7---|-R---------|-----5---5---|-7---5-----|
|---5-------7-5---|---5---5---5-|-----------|---5---5---5-|---5---5---|
+-----------------+-5-----------+---5-7-5-3-+-0-----------+---------0-+
Q e e e e e e e e e e e e e w +e e e e e e e e q e q e e e
+-------------+-5---------------+---+------------------+-------------+
|-----5---7---|-----7-------R---|---|------------------|-------------|
|---5---5---5-|---5---5---5---5-|---|------------------|-0-0-2-2-----|
+-5-----------+---------3-------+-0-+----0-0-0-0-0-0-0-+---------1-1-+
+e e e e e e e e Q e e e e e e e e e e e e e e e e e e e e e
+------------------+-------------+-----------------+-----------------+
|------------------|-------------|-----------------|-----------------|
|------------------|-0-2-2-2-----|---------3---2---|-0-0-0-2-2-2-----|
+----1-0-1-3-3-1-3-+---------1-1-+-1-1-0-1---3---3-+-------------1-1-+
+e e e e e e e e Q e e e e e e e e e e e e e e e e e
+------------------+-------------+-----------------+-----------+
|------------------|-------------|-----------------|2:-5---5---|
|------------------|-0-2-2-2-----|---------3---2---|4:---5---5-|
+----1-0-1-3-3-1-3-+---------1-1-+-1-1-0-1---3---3-+-----------+
e e e e e e e e e e e e e e e e e e e e e e e e
+---------------------------+-------------------------+
|6:-5-----5---5-5---5---5-7-|-5-----5---5-5---5---5-7-|
|4:---------------5---5-----|---------------5---5-----|
+-----3-3---3---------------+---3-3---3---------------+
e e e e e e e e e e e e Q e e e e e e e e e e e e e e e e e e e e e
+-------------------------+---9---9-------------+-------9---9-------------+
|-------5---5-------------|-----R---R-----------|-------------------------|
|-------------------------|-7-----------7---7-9-|-7-7-7---7---7-7-7-9-7-9-|
+-3-3-3---3---3-3-3-5-3-5-+-----------7---7-----+-------------------------+
e e e e e e e e e e e e e e e e e e e e e e e e e e e e e e e e
+-------5---5-------------+-------5---5-------------+-------------------+
|-------------------------|-------------------------|4:-----------------|
|-3-3-3---3---3---3---3-5-|-3-3-3---3---3-2-3-2-3-5-|4:-----------------|
+---------------3---3-----+-------------------------+---3-3-3-3-3-3-3-3-+
e w+e Q e+h +H e e Q Q q +h h Q e+h +H e e Q Q q +w
+---------+---------+--------+-------+------+-------+--------+-------+----+
|5:---R---|4:-7-----|--------|-7-----|------|-7-----|--------|-7-----|----|
|4:-------|4:---7---|----5-7-|---7-5-|------|---7---|----5-7-|---7---|----|
+---3-----+---------+--------+-------+----7-+-------+--------+-----8-+----+
e e e q q e e e e e e e e e e e e e e e e e q e s s e e e e Q q q e
+-------------+-----------------+-----------------+-----------------+---------+
|-7-7-7-------|-----------------|-----------------|-----------------|---------|
|-------7-7-7-|-7-7-7-7-8-7-5-7-|-------7-7-7-5-5-|-5-5-5-5---------|---7-7-7-|
+-------------+-----------------+-5-5-5-----------+---------7-7-8-7-+-5-------+
e e e q e e e e e e e e e e e e e e e e e e e q e e e e e e
+---------------+-----------------+-----------------+---------------+
|---9-7-9-9-7-9-|-----------------|-----------------|---------------|
|-7-------------|-------7-7-7-3-3-|-3-3-3---3---2---|-0-0-2-2-2-----|
+---------------+-5-5-5-----------+-------3---3---3-+-----------1-1-+
+e q e e e e e e e e e e e e e e e e e e e e e e e e e e e e e
+----------------+-----------------+-----------------+-----------------+
|----------------|-----------------|-----------------|-----------------|
|----------------|-0-0-0-2-2-2-----|---------3---2---|-0-0-0-2-2-2-----|
+----1-1-3-3-1-3-+-------------1-1-+-1-1-1-1---3---3-+-------------1-1-+
+e e e e e e e e e e e e e e e e +e e e e e e e e e e e e e e e e
+------------------+-----------------+------------------+-----------0-----+
|------------------|-----------------|------------------|-----2---0-------|
|------------------|-0-0-0-2-2-2-----|----------3---2---|-0-3---2-------0-|
+----1-1-1-3-3-1-3-+-------------1-1-+----1-0-1---3---3-+-------------1---+
e e e e e e e e e e e e e e e e e e e e e e q
+-----------------+-----------0-----+---------------+
|-0---0-----------|-----2---0-------|-0---0---------|
|---0---0-3---2---|-0-3---2-------0-|---0---0-3---2-|
+-----------3---3-+-------------1---+-----------3---+
e e e e e e e e e e e e Q e e e e e e e e e q e e e e e e e e e e
+---------------------------+---------------------+-----------------------+
|6:-------5-R---R---5---5---|-5-5-R-5-R---5---5---|---------------5---5---|
|4:---------------5---5---5-|-----------5---5---5-|-------------5---5---5-|
+---3-3-3-----3-------------+---------------------+-3-3-3-3-3-3-----------+
Q e e e e e e e e e Q e e e e e s s e e e e e e e e e e e e e e e
+---------------------+-----------------------+-------------------------+
|-2-2-R-2-R---2---2-4-|-2-2-R-2-R-5-4-5-----5-|---------R---R-----------|
|-----------2---2-----|-----------------7-5---|-3-3-3-3---3-----3---3-5-|
+---------------------+-----------------------+---------------3---3-----+
e e e e e e e e e e e e e e e e e e e e w+q e e e q e e e
+-------------------------+-------------------+-------+-----------------+
|-------------------------|4:-----------------|5:-R---|4:---------------|
|-3-3-3-3-3-3-3-2-3-2-3-5-|4:-----------------|4:-----|4:-0-0-0-2-2-----|
+-------------------------+---3-3-3-3-3-3-3-3-+-------+-------------1-1-+
+e e e e e e e e e e e e e e e e +e e e e e e e e e e e e e e e e
+------------------+-----------------+------------------+-----------------+
|------------------|-----------------|------------------|-----------------|
|------------------|-0-0-0-2-2-2-----|------------------|-0-0-0-2-2-2-----|
+----1-0-1-3-3-1-3-+-------------1-1-+----1-0-1-3-3-1-3-+-------------1-1-+
e e e e e e e e e e e e e e e e +e e e e e e e e e e e e e e e e
+-----------------+-----------------+------------------+-----------------+
|-----------------|-----------------|------------------|-----------------|
|---------3---2-3-|-0-0-0-2-2-2-----|------------------|-0-0-0-2-2-2-----|
+-1-1-0-1---3-----+-------------1-1-+----1-0-1-3-3-1-3-+-------------1-1-+
e e e e e e e e e e e e e e e e e e e e e s s e e e e e e e e e e
+-----------------+-----------------+-------------------+-----------------+
|-----------------|-----------------|-------0---2-3-0---|-----------------|
|-----------------|-0-0-0-2-2-2-----|---3-2---3-------3-|-0-0-0-2-2-2-----|
+-1-1-0-1-3-3-1-3-+-------------1-1-+-1-----------------+-------------1-1-+
+e e e e e e e e e e e e e e e e +e e e e e e e e e e e e e e e e
+------------------+-----------------+------------------+-----------------+
|------------------|-----------------|------------------|-----------------|
|------------------|-0-0-0-2-2-2-----|------------------|-0-0-0-2-2-2-----|
+----1-0-1-3-3-1-3-+-------------1-1-+----1-0-1-3-3-1-3-+-------------1-1-+
e e e s s e e s E Q q e e e e e e e e e e e e e e e e e e e
+-------------------+-----------+-----------------+-----------0-----+
|-------------------|-----------|-----------------|-----2---0-------|
|---3-2-0-0---0---3-|-0-2-2-----|-----------------|-0-3---2-------0-|
+-1---------3---3---+-------1-1-+-1-1-0-1-3-3-2-3-+-------------1---+
e e e e e e s s e e e e e e e e e e e e e e e e e e e e e e e e e
+-------------------+-----------0-----+-----------------+-----------0-----+
|-0---0-------------|-----2---0-------|-0---0-----------|-----2---0-------|
|---0---0-3---2-2---|-0-3---2-------0-|---0---0-3---2-3-|-0-3---2-------0-|
+-----------3-----3-+-------------1---+-----------3-----+-------------1---+
e e e e e e e e e e e e e e e e e e e e e e e e
+-----------------+-----------0-----+-----------------+
|-0---0-----------|-----2---0-------|-0---0-----------|
|---0---0-3---2---|-0-3---2-------0-|---0---0-3---2-3-|
+-----------3---3-+-------------1---+-----------3-----+
==========================================================================
Created using the Bass Tab Creator
__ by Mario D'Alessio (motcid!marble!dalessio)
+|oo|+
+|oo|+ Notes: w = Whole h = Half q = Quarter
|| e = 8th s = 16th t = 32nd x = 64th
||
|| Capital durations are dotted notes
|| (equal to 1.5 times the duration value)
||
|| #
|| +----+ +----+
_ || _ |*--*+ = MEASURE |4:--| = TIME
_||_// |*--*+ REPEATS |4:--| SIGNATURES
| [] | +----+ (#=Num Repeats) +----+
| || |
/ [] + = TIE ^ = TRIPLET > = BEND
______/ H = HAMMER ON = SLIDE TO FRET R = Rest
P = PULL OFF X = SLIDE TO NOWHERE ~ = Trill
8J F




Ваше мнение



Капча